Pod - Alive Chords & Tabs

 

Alive Chords & Tabs

Pod Chords & Tabs

Version: 1 Type: Tab 0 ratings
1 star 2 stars 3 stars 4 stars 5 stars
comments

Alive Tab

P.O.D
"Alive"

This version sounds great and is closest to the actual song
The tuning is normal dropped D tuning: EBGDAD

Intro/Verse
[ Tab from: http://www.guitartabs.cc/tabs/p/pod/alive_tab.html ]
E--------------------------------------------------------
B--------------------------------------------------------
G----------------------3-3-3-3-3-3-3-3--3-3-3-3----------
D--0-0-0-0-0--5-5-5-5--3-3-3-3-3-3-3-3--3-3-3-3--3-3-3---
A--0-0-0-0-0--5-5-5-5--1-1-1-1-1-1-1-1--1-1-1-1--3-3-3---
D--0-0-0-0-0--5-5-5-5----------------------------3-3-3---


Chorus					Mid-Chorus Riff

E--------------			    E---------------
B--------------  Each chord is      B---------------
G--3---7-------  strummed many      G---------------
D--3---7---3---  times.             D--3-2-0-2-0----
A--1---5---3---			    A------------3--
D----------3---			    D---------------
				This comes after "I can't deny you"




This version is much better. Enjoy.
Comments