Plus Minus - Summer Dress Chords & Tabs

 

Summer Dress Chords & Tabs

Plus Minus Chords & Tabs

Version: 1 Type: Tab 0 ratings
1 star 2 stars 3 stars 4 stars 5 stars
comments

Summer Dress Tab

   
(+/-) Plus/Minus - Summer Dress 1 (All her winter clothes)
From 'You Are Here'

tabbed by pourn@glassjaw.net



listen to the song for the strumming rhythm.

Dropped-D

intro
pm.......................
e|---------------------------------------------|
B|---------------------------------------------|
G|---------------------------------------------|
D|-2h4-2-0---------------------------4----4--5-|
A|-0---0-0-4--4-4-2h4-4-4-2h4p2p0-0--2----5--5-|
D|---------0--0-0-0---0-0-0----------2----5--5-|x2

verse 1
pm.......................
e|---------------------------------------------|
B|---------------------------------------------|
G|---------------------------------------------|
D|-2h4-2-0---------------------------4----4--5-|
A|-0---0-0-4--4-4-2h4-4-4-2h4p2p0-0--2----5--5-|
D|---------0--0-0-0---0-0-0----------2----5--5-|x4
In the morning before he wakes up
she's collecting her clothes around the bed,
walking tiptoes and fixing her hair
shuts the door

e|-------------------------|
B|-------------------------|
G|-------------------------|
D|-4----4-------5--x-x-x-x-|
A|-2----5-------5--x-x-x-x-|
D|-2----5-------5--x-x-x-x-|
and she runs down the stairs

chorus
e|-----------------------------------------|
B|-----------------------------------------|
G|-----------------------------------------|
D|-9------\-4-(---4)--5---4---/11-(eleven)-|
A|-7------\-5-(or-4)--5---0---/-0----------|
D|-7------\-4-(---4)--5---0----------------|
in a summer dress she walks on home
[ Tab from: http://www.guitartabs.cc/tabs/p/plus_minus/summer_dress_tab.html ]
e|----------------------|
B|----------------------|
G|----------------------|
D|-9------\-4-(---4)--5-|
A|-7------\-5-(or-4)--5-|
D|-7------\-4-(---4)--5-|
all her winter clothes are gone or sold

verse 2
pm.......................
e|---------------------------------------------|
B|---------------------------------------------|
G|---------------------------------------------|
D|-2h4-2-0---------------------------4----4--5-|
A|-0---0-0-4--4-4-2h4-4-4-2h4p2p0-0--2----5--5-|
D|---------0--0-0-0---0-0-0----------2----5--5-|x4
there's no looking back and there's no fear
there's no reason for her to believe
that she needs to hang on to her past
it's so natural just to move on

e|-------------------------|
B|-------------------------|
G|-------------------------|
D|-4----4-------5--x-x-x-x-|
A|-2----5-------5--x-x-x-x-|
D|-2----5-------5--x-x-x-x-|
and he doesn't know that she's really

chorus 2
e|-----------------------------------------|
B|-----------------------------------------|
G|-----------------------------------------|
D|-9------\-4-(---4)--5---4---/11-(eleven)-|
A|-7------\-5-(or-4)--5---0---/-0----------|
D|-7------\-4-(---4)--5---0----------------|
gone into her closet and her drawers
to throw out the things she can't ignore
in a summer dress she walks on home

e|----------------------|
B|----------------------|
G|----------------------|
D|-9------\-4-(---4)--5-|
A|-7------\-5-(or-4)--5-|
D|-7------\-4-(---4)--5-|
all her winter clothes are gone or sold

pm.......................
e|---------------------------------------------|
B|---------------------------------------------|
G|---------------------------------------------|
D|-2h4-2-0---------------------------4----4--5-|
A|-0---0-0-4--4-4-2h4-4-4-2h4p2p0-0--2----5--5-|
D|---------0--0-0-0---0-0-0----------2----5--5-|x2

D|-0-|
A|-0-|
D|-0-|
Comments