Plus 44 - No It Isnt Chords & Tabs

 

No It Isnt Chords & Tabs

Plus 44 Chords & Tabs

Version: 3 Type: Bass Tab

No It Isnt Bass Tab

                                  NO IT ISN'T 
                             As recorded by Plus 44

Words and Music by Plus 44
Transcribed by Aaron Hetherington (Donkey Fly)

For all the information about the song check my guitar tab. To hear the song goto

www.plusfortyfour.com
or
www.plus-44.com

   Intro               (The bass is very quiet at the start until up to the end)
    Moderate Q=120
   4/4
    Gtr I
||-----------|-----------|----------|--------||
||o----------|-----------|----------|-------o||
||o----------|-5\--------|-0--------|-/7----o||
||--2--------|-----------|----------|--------||


   Verse
||-----------|-----------|----------|--------||
||o----------|-----------|----------|-------o||
||o----------|-5\--------|-0--------|-/7----o||
||--2--------|-----------|----------|--------||


 Chorus
|-----------|----------|-----------|------|
|-----------|----------|-----------|------|
|-2------4--|-5--------|-9----7----|-5----|
|-----------|----------|-----------|------|


|-----------|----------|-----------|-----------|
|-----------|----------|-----------|-----------|
|-2------4--|-5--------|-9----7----|-5----4----|
|-----------|----------|-----------|-----------|

[ Tab from: http://www.guitartabs.cc/tabs/p/plus_44/no_it_isnt_btab_ver_3.html ]
   Verse 2
                                             4x
||-----------|-----------|----------|--------||
||o----------|-----------|----------|-------o||
||o----------|-5\--------|-0--------|-/7----o||
||--2--------|-----------|----------|--------||


 Chorus
|-----------|----------|-----------|------|
|-----------|----------|-----------|------|
|-2------4--|-5--------|-9----7----|-5----|
|-----------|----------|-----------|------|


|-----------|----------|-----------|-----------|
|-----------|----------|-----------|-----------|
|-2------4--|-5--------|-9----7----|-5----4----|
|-----------|----------|-----------|-----------|


   Interlude
                            4x
||------------|-------------||
||o-----------|------------o||
||o-----------|-------5----o||
||--5\--------|-/7----------||


 Chorus
|-----------|-----------------|-----------------|-----------------|
|-----------|-----------------|-----------------|-----------------|
|-2------4--|-5-5-5-5-5-5-5-5-|-9-9-9-9-7-7-7-7-|-5-5-5-5-5-5-5-5-|
|-----------|-----------------|-----------------|-----------------|


|-----------------|-----------------|-----------------|-----------------|
|-----------------|-----------------|-----------------|-----------------|
|-2-2-2-2-2-2-2-4-|-5-5-5-5-5-5-5-5-|-9-9-9-9-7-7-7-7-|-5-5-5-5-4-4-4-4-|
|-----------------|-----------------|-----------------|-----------------|


 Outro
|-----------------|-----------------|----------|--------*|
|-----------------|-----------------|----------|--------*|
|-----------------|-5-5-5-5-5-5-5-5-|-0--------|-(0)----*|
|-2-2-2-2-2-2-2-2-|-----------------|----------|--------*|