Plumb - Real Chords & Tabs

 

Real Chords & Tabs

Plumb Chords & Tabs

Version: 2 Type: Tab

Real Tab

USE DELAY!!! it wont sound right if u don't use the delay pedal... have the speed set 
fast... sounds right when i play it... standard tuning...
[ Tab from: http://www.guitartabs.cc/tabs/p/plumb/real_tab_ver_2.html ]
-----------------------------------------|
----------16-----16--------15-15------15-|
-------15-15-----15--------15-15------15-|
-13-13--------13-----12-12---------12----|
-----------------------------------------|
-----------------------------------------|
 .   .         .      .  .          .  <---- slight palm mute...

---------------------------------------|
--------15-16----16---------15-15---15-|
--------15-15----15---------15-15---15-|
---------------------------------------|
--15-15-------15-----------------------|
-------------------16-16-16-------16---|
   .  .        .    .  .  .        .   <---- same here...