Plumb - Real Chords & Tabs

 

Real Chords & Tabs

Plumb Chords & Tabs

Version: 1 Type: Tab 0 ratings
1 star 2 stars 3 stars 4 stars 5 stars
comments

Real Tab

   
Real by Plumb
tab by: Christian Rocafort of Blacklisted(LipaCityBatangasPH)

A wonderful song. I wonder why no body's tabbing this thing.
i'm sure this thing is 90% right!!! Not pretty sure w/ the effects though.
email:christianrocafort@yahoo.com

standard tuning:

Intro:
(Delayed Effects)
|-------------------18-18|-------------------18-18|
|-----------16-----------|--------16-16-----------|
|--------15------15------|----------------15------|
|--13-13-----------------|------------------------|
|------------------------|--13-13-----------------|
|------------------------|------------------------|

|-------------------18-18|-------------------18-18|
|--------16-16-----------|--------16-16-----------|
|----------------15------|----------------15------|
|------------------------|------------------------|
|--11-11-----------------|--11-11-----------------|
|------------------------|------------------------|


D#
Look at me I'm twenty three
A#
Beautiful a sight to see
   G#
Tonight

A little dress to draw the press
And I'll be leaving
All the rest behind

ref:
                  C
Well be pleased girl
       A#
If this is what you wanted
     C              G#                         A#
The whole world is watching you take the stage

What will you say

chorus:
D#
Aren't I lovely
   A#                   G#
And do you want me cause
                                                 D#
I am hungry for something that will make me real
                   A#
Can you see me and
                    G#
Do you love me cause
                  A#
I am desperately searching for something Real
(pause)
(repeat intro)
[ Tab from: http://www.guitartabs.cc/tabs/p/plumb/real_tab.html ]
(do the same chords at the 1st stanza)
(wahwah+delay effects)
|--6-6----------------------------------------------------------------|
|------4-4-4-4-4-4-4-4------------------------------------------------|
|----------------------3-3-3-3-3-3-3-3--------------------------------|
|--------------------------------------0-0-0-0-0-0-0-0-1-1-1-1-1-1-1-1| 
|---------------------------------------------------------------------|
|---------------------------------------------------------------------|

|---------------------------------------------------------------------|
|--4-4-4-4-4-4-4-4-4-4------------------------------------------------|
|----------------------3-3-3-3-3-3-3-3--------------------------------|
|--------------------------------------0-0-0-0-0-0-0-0-1-1-1-1-1-1-1-1| 
|---------------------------------------------------------------------|
|---------------------------------------------------------------------|

I close my eyes imagine time
Will not forget
My sacrifice

I numb the ache and decorate
My emptiness
Stand naked in the light

ref:
Well be pleased world
If this is what you wanted
This young girl is everything that you made
What will she say

chorus:
Aren't I lovely
And do you want me cause
I am hungry for something that will make me real
Can you see me and
Do you love me cause
I am desperately searching for something
Real

Bridge:
     A#          G#
The world goes home
      C         A#
The lights go down
      F      G#
My lipstick fades
 A#
Away

(same with the chorus chords/intro effects)
Aren't i lovely
And do you want me cause
I am hungry for something that will make me real
Can you see me and
Do you love me cause
I am desperately searching for something
Real
(repeat until it fades)
Comments