Plimsouls - A Million Miles Away Chords & Tabs

 

A Million Miles Away Chords & Tabs

Plimsouls Chords & Tabs

Version: 1 Type: Tab 0 ratings
1 star 2 stars 3 stars 4 stars 5 stars
comments

A Million Miles Away Tab

   
#----------------------------------PLEASE NOTE---------------------------------#
#This file is the author's own work and represents their interpretation of the #
#song. You may only use this file for private study, scholarship, or research. #
#------------------------------------------------------------------------------##
Subject: CHO: The Plimsouls "A Million Miles Away"
From: Ben Golding 


I tabbed this myself and it should go into the archives somewhere.


{t: Million Miles Away}
{st: The Plimsouls (Case/Alkes/Fradkin)}
[ Tab from: http://www.guitartabs.cc/tabs/p/plimsouls/a_million_miles_away_tab.html ]
{c: Intro:}
{sot}
-----------------|-----------------|-----------------|
---3---------3---|-----------------|---3---------3-5-|
-----4-2-0-2---4-|-----0-0h2p0-----|-----4-2-0-2-----|
-----------------|---2---------2-0-|-----------------|
-----------------|-----------------|-----------------|
-0---------------|-0---------------|-0---------------|
{eot}
[E]Friday night, I'd just got back
I had my eyes shut, I was dreaming about the past  [G]
{c: Verse riff}
{sot}
---3---3---3-------|
-3---3---3---5-3---|
-----------------4-|
-------------------|
-------------------|
-------------------|
{eot}
[E]I thought about you while the radio played
Should have got moving but for some reason I stayed    [G]
{c: verse riff twice}

[A]I started [B]drifting to a [C]differ[B]ent [A]place
[A]I realised I [B]was falling [C]off the [B]face of the [D]world
And there was nothing left to bring me back

{soc}
[E]I'm a [F#]million [G]miles [a]away,
{sot}
-------------------|
-------------------|
-------0-2-0-------|
-0-2-4-------4-2-0-|
-------------------|
-------------------|
{eot}
[c]mil[B]lion [a]miles [D]away  [D]   [Dsus4]  [D]   [D]  [Dsus4]  [D]
[E]I'm a [F#]million [G]miles [a]away,
[C]And there's nothing left to [G]bring me back to[D]day
{c: verse riff without end bit}
{eoc}

I took a ride and I went downtown
The streets were empty, there was no one around
All the faces that I used to know
Gone from the places that I used to go

I'm at the wrong end of the looking glass
Trying to hold on to the hands of the past and you
And there's nothing left to bring me back

{c: Chorus}

{c: Solo (E pentatonic)}

{c: Chorus}
Comments