Pleymo - Tank Club Chords & Tabs

 

Tank Club Chords & Tabs

Pleymo Chords & Tabs

Version: 1 Type: Tab 0 ratings
1 star 2 stars 3 stars 4 stars 5 stars
comments

Tank Club Tab

Group: PLEYMO
Title: TANK CLUB
ALBUM: EPISODE 2:MEDECINE CAKE




INTRO
Guitar 1 
 |------------------|-----------------|-----------------|-----------------|
 |------------------|-----------------|-----------------|-----------------|
 |------------------|-----------------|-----------------|-----------------|
 |------0---0-----0-|-----0---0-----0-|-----0---0-----0-|-----0---0-----0-|
 |--2-1-0-1-0-1-2-0-|-2-1-0-1-0-1-2-0-|-2-1-0-1-0-1-2-0-|-2-1-0-1-0-1-2-0-|
 |------------------|-----------------|-----------------|-----------------|


Guitar 1                                                 harm. 7e frette
||------------------|-----------------|-----------------|-------------------||
||°-----------------|-----------------|-----------------|------------------°||
||------------------|-----------------|-----------------|-------------------||
||--2-1-0-1-0-1-2-0-|-2-1-0-1-0-1-2-0-|-2-1-0-1-0-1-2-0-|-2-1-0-1-0---------||
||°-2-1-0-1-0-1-2-0-|-2-1-0-1-0-1-2-0-|-2-1-0-1-0-1-2-0-|-2-1-0-1-0-X-XXXX-°||
||--2-1-0-1-0-1-2-0-|-2-1-0-1-0-1-2-0-|-2-1-0-1-0-1-2-0-|-2-1-0-1-0-X-XXXX--||



 |------------------|-----------------|-----------------|-----------------|
 |------------------|-----------------|-----------------|-----------------|
 |------------------|-----------------|-----------------|-----------------|
 |-1----------------|-----------------|-----------------|-----------------|
 |-1----------------|-----------------|-----------------|-----------------|
 |-1----------------|-----------------|-----------------|-----------------|
                                                                    Là j'ai

VERSE 1
Guitar 1 
 |------------------|-----------------|------------------|-13--------------|
 |---------9--------|---9-------------|---------8--------|-----------------|
 |------------------|-----------------|------------------|-----------------|
 |-8--8-------------|-----------------|-8--8-------13p11-|-----------------|
 |------------------|-----------------|------------------|-----------------|
 |------------------|-----------------|------------------|-----------------|
 pas confiance....


 |------------------|-----------------|------------------|-11--------------|
 |---------9--------|----9p8----------|---------8--------|-----------------|
 |------------------|-----------------|------------------|-----------------|
 |-8--8-------------|-----------------|-8--8-------13p11-|-----------------|
 |------------------|-----------------|------------------|-----------------|
 |------------------|-----------------|------------------|-----------------|
                                                                         Ré-

PRE-CHORUS
Guitar 1 
P.M........................................................
 |------------------|------------------|------------------|-----------------|
 |------------------|------------------|------------------|-----------------|
 |------------------|------------------|------------------|-----------------|
 |-----00--00----00-|-----00--00----00-|-----00--00----00-|-----0---0-----0-|
 |-2211001100112200-|-2211001100112200-|-2211001100112200-|-2-1-0-1-0-1-2-0-|
 |------------------|------------------|------------------|-----------------|
-sistance rime avec condoléances...

[ Tab from: http://www.guitartabs.cc/tabs/p/pleymo/tank_club_tab.html ]
CHORUS 1
||------------------|-----------------|-----------------|-------------------||
||°-----------------|-----------------|-----------------|------------------°||
||------------------|-----------------|-----------------|-------------------||
||--2-1-0-1-0-1-2-0-|-2-1-0-1-0-1-2-0-|-2-1-0-1-0-1-2-0-|-2-1-0-1-0---------||
||°-2-1-0-1-0-1-2-0-|-2-1-0-1-0-1-2-0-|-2-1-0-1-0-1-2-0-|-2-1-0-1-0-X-XXXX-°||
||--2-1-0-1-0-1-2-0-|-2-1-0-1-0-1-2-0-|-2-1-0-1-0-1-2-0-|-2-1-0-1-0-X-XXXX--||
Tank! Des cakes au détail...                                          You can


 |-----------------|-----------------|-----------------|-----------------|
 |-----------------|-----------------|-----------------|-----------------|
 |-----------------|-----------------|-----------------|-----------------|
 |-1---------------|-----------------|-----------------|-----------------|
 |-1---------------|-----------------|-----------------|-----------------|
 |-1---------------|-----------------|-----------------|-----------------|
try!

VERSE 2 same as VERSE 1

Chorus 2 same as Chorus 1



BRIDGE
Guitar 2
 |-----------------|-----------------|-----------------|-----------------|
 |-0-------0-------|-0-------0-------|-0-------0-------|-0-------0-------|
 |------5-------5--|------5-------5--|------5-------5--|------5-------5--|
 |-----------------|-----------------|-----------------|-----------------|
 |-----------------|-----------------|-----------------|-----------------|
 |-----------------|-----------------|-----------------|-----------------|



Guitar 1 
 |-----------------|
 |-----------------|
 |-----------------|
 |-2--1--0---------|
 |-2--1--0---------|
 |-2--1--0---------|

Guitar 2 
            + - +            +   -              + - +
 |-----------------|-----------------|-----------------|-----------------|
 |----------0------|---------0-------|----------0------|-----------------|
 |--------------5--|---------5-------|--------------5--|-----------------|
 |-----------------|-----------------|-----------------|-----------------|
 |-----------------|-----------------|-----------------|-----------------|
 |-----------------|-----------------|-----------------|-----------------|

                                     
            + - +            +   -   
 |-----------------|-----------------|-----------------|-----------------|
 |----------0------|---------0-------|---------0-------|-0-------0-------|
 |--------------5--|---------5-------|---------5-------|------5-------5--|
 |-----------------|-----------------|-----------------|-----------------|
 |-----------------|-----------------|-----------------|-----------------|
 |-----------------|-----------------|-----------------|-----------------|


 |-----------------|
 |-0-------0-------|9X
 |------5-------5--|
 |-----------------|
 |-----------------|
 |-----------------|


Chorus 3 same as Chorus 1:

 P.M. ..............................
 |-----------------|-----------------|
 |-----------------|-----------------|
 |-----------------|-----------------|
 |-0-0-0-0-0-0-0-0-|-0-0-0-0-0-0-0-0-|
 |-0-0-0-0-0-0-0-0-|-0-0-0-0-0-0-0-0-|
 |-0-0-0-0-0-0-0-0-|-0-0-0-0-0-0-0-0-|

            + - +            +   -              + - +
 |-----------------|-----------------|-----------------|-----------------|
 |----------0------|---------0-------|----------0------|-----------------| 
 |--------------5--|---------5-------|--------------5--|-----------------| 
 |-----------------|-----------------|-----------------|-----------------| 
 |-----------------|-----------------|-----------------|-----------------|
 |-----------------|-----------------|-----------------|-----------------|
Comments