Plenty Of Brawn - So Far Away Chords & Tabs

 

So Far Away Chords & Tabs

Plenty Of Brawn Chords & Tabs

Version: 1 Type: Tab 0 ratings
1 star 2 stars 3 stars 4 stars 5 stars
comments

So Far Away Tab

   
PLENTY OF BRAWN
So far away
Written by Nemeth / Ditzer

Tuning: EADGBE


Verse Riff:

  
E||---------------------------------------------------------------------
B||---------------------------------------------------------------------
G||---------------------------------------------------------------------
D||----------------------------0--------0----0-----0--0--5--------5-----
A||--0--------0----0--0-----0--2--------2----2-----2--2--5--------5-----
E||--2--------2----2--2-----2----------------------------3--------3-----


          
-------------------------------------|||
-------------------------------------|||
-------------------------------------|||
--5--5--5--7--------7-------7--7--7--|||
--5--5--5--7--------7-------7--7--7--|||
--3--3--3--5--------5-------5--5--5--|||


Chorus Chords:


     C    A 
E||--0----0----||
B||--1----2----||
G||--0----2----||
D||--2----2----||
A||--3----0----||
E||------------||


Solo:

E||--10----10--7--------------|-----------------7------|
B||---------------10--7-------|--------7----10---------|
G||------------------------9--|--7--9------------------|
D||---------------------------|------------------------|
A||---------------------------|------------------------|
E||---------------------------|------------------------|

[ Tab from: http://www.guitartabs.cc/tabs/p/plenty_of_brawn/so_far_away_tab.html ]
                                                                              
--10--7--------------------|--------------------------|------------------------|
---------10--7-------------|--------------------------|------------------------|
------------------9--9--7--|---------------7--9b---9b-|--7---------------------|
---------------------------|--9----7--99--------------|-----9--7--9----9--7----|
---------------------------|--------------------------|------------------------|
---------------------------|--------------------------|------------------------|


                                                                        
--10----10----7----------|------------------------|----------------------|
-------------------10----|--7---------------------|----------------------|
-------------------------|-------9----77----------|------------7----9----|
-------------------------|-------------------9----|--7----9--------------|
-------------------------|------------------------|----------------------|
-------------------------|------------------------|----------------------|


                                                                           
--------------------------|---------------------------|--------------------||
--------------------------|---------------------------|--------------------||
--12/---11/---12/---11----|--9/---12/-----11/---12/---|--14~---------------||
--------------------------|---------------------------|--------------------||
--------------------------|---------------------------|--------------------||
--------------------------|---------------------------|--------------------||


Tabbed by Kondl
Comments