Platinum Blonde - Doesnt Really Matter Chords & Tabs

 

Doesnt Really Matter Chords & Tabs

Platinum Blonde Chords & Tabs

Version: 1 Type: Tab 0 ratings
1 star 2 stars 3 stars 4 stars 5 stars
comments

Doesnt Really Matter Tab

   
Platinum Blonde-Doesn't Really Matter

I haven't seen a single Platinum Blonde tab on the internet, so here's one.

Intro

e-------------------------------------------------------------------|
B-------------------------------------------------------------------|
G-------------------------------------------------------------------|   x3
D------6---7---6-------6---7---6--------2---4---2-------2---4---2---|
A--4-4---4---4---4-4-4---4---4---4--2-2---2---2---2-2-2---2---2---2-|
E-------------------------------------------------------------------|

Verse- "It's been a hard day..."

e------------------------|
B------------------------|
G------------------------|
D-----6--7--6----2--4--2-|
A--4-----------2---------|
E------------------------|
 p.m.....................
[ Tab from: http://www.guitartabs.cc/tabs/p/platinum_blonde/doesnt_really_matter_tab.html ]
Pre-Chorus- "And if you were to ask me..." *Second G#5 is played like this
                                              e---
A5, G#5, C#5, *G#5, A5, B5                    B---
p.m.....            p.m....                   G-13
                                              D-13
                                              A-11
                                              E---

(For the little part after the first Pre-Chorus, just go back to the Intro)

Chorus- "It doesn't really matter..."

C#5, A5, F#5, B5


Solo- I don't think it's entirely correct but just mess around with it.(Barre at the 4th fret)

e------------------------------|
B-------------4----7-----------|
G--------4-------4---4-------4-|    x4
D----6------6----------6---6---|
A--4---4-----------------4-----|
E------------------------------|


Little Part After Solo- 2nd guitar plays chorus part also.

e-----------------|
B-----------------|
G-----------------|  Repeat as many times as needed
D--6-4-----7-6----|
A-------4-------4-|
E-----------------|
Comments