Plankeye - Step Away Chords & Tabs

 

Step Away Chords & Tabs

Plankeye Chords & Tabs

Version: 1 Type: Bass Tab 0 ratings
1 star 2 stars 3 stars 4 stars 5 stars
comments

Step Away Bass Tab

   
Plank Eye 
"Step Away"
from SPILL
From: Jared Romero 

Cool bassline starts it out solo and continues through verse
G-|--6-7-6-6-7-6-7---7-7-7-7-7/9-7-|--6-7-6-6-7-6-7---7-7-5-4-5-4-|
D-|-7-7-7-7---------5-5-5-5--------|-7-7-7-7---------5-5-5-5------|
A-|--------------------------------|------------------------------|
E-|--------------------------------|------------------------------|

second guitar comes in hard playing powerchords
bass just plays along on single note
A
G 
A
     G

Chorus:
A B   D      C#
A B    G
A B     D    C#         A   B   G


A  -  G  (4X)


A
G
A
           G


Chorus

[ Tab from: http://www.guitartabs.cc/tabs/p/plankeye/step_away_btab.html ]
Bass Solo - Added by Johnny Lloyd (StarFlyr99@aol.com)
---------------------------------------------------------------
There are five runs in the solo.
1st Run
G-|---------4-4h5-7-5-4---|
D-|-----5-7-------------7-|
A-|-5-7-------------------|
E-|-----------------------|


2nd Run
G-|-----------------------|
D-|---5------5------5---5-|
A-|-----------------------|
E-|-3---33-3---33-3---3---|


3rd Run
G-|-9-7-5-4---------------|
D-|---------7-5-----5h7---|
A-|-------------5-7-----7-|
E-|-----------------------|


4th Run
G-|-5h6p5-3-----------|
D-|---------5-----3-5-|
A-|-----------3-5-----|
E-|-------------------|


5th Run
G-|-7--5-------------|
D-|-------7--5-------|
A-|-------------7--5-|
E-|------------------|


cool bassline takes the song out



        Written by Plank Eye
        Copyright 1996  Tooth & Nail Records
        All rights reserved

Comments