Plankeye - Scared Chords & Tabs

 

Scared Chords & Tabs

Plankeye Chords & Tabs

Version: 1 Type: Bass Tab 0 ratings
1 star 2 stars 3 stars 4 stars 5 stars
comments

Scared Bass Tab

   
"Scared"
Plankeye
Spill
Lyrics: Scott Silleta
Music: Planeye
(c) 1994 Tooth & Nail Records
Tabbed By: Johnny Lloyd


-- Intro One (arranged for bass) --     8x
G-|----14---------------------------------|
D-|-12----12----14-------16-------12-9-10-|
A-|----------12----12\14----14-10---------|
E-|---------------------------------------|

[ Tab from: http://www.guitartabs.cc/tabs/p/plankeye/scared_btab.html ]
-- Intro Two (might be played by bass) --
    s p s s p s s   p s s p s s s
G-|---7----------------------------|
D-|---------7-------9-----5--------|
A-|-5---5-------------------2-3-2\-|
E-|-------5---5-5\7---7-3----------|


-- Verse --
    s  p  s   p s p s  p  s   p s p
G-|----7----------------------------|
D-|-----------7---7----9------5---5-|
A-|-5-------------------------------|
E-|-------0h5---5---7-----0h3---3---|


-- Chorus --
G-|-----------------|
D-|-----------------|
A-|-----------------|
E-|-5-5-7-7-3-3-3-3-|


-- After Chorus --
G-|----------------------------------------------------|
D-|-----4-4-5-5----------------------------------------|
A-|-5-5--------------4-4-5-5------6-6-7-7------2-2-3-3-|
E-|--------------5-5----------7-7----------3-3---------|
Comments