Plankeye - Bc Chords & Tabs

 

Bc Chords & Tabs

Plankeye Chords & Tabs

Version: 1 Type: Bass Tab 0 ratings
1 star 2 stars 3 stars 4 stars 5 stars
comments

Bc Bass Tab

Song: BC (bass)
Artist: Plankeye
CD: Commonwealth

Okey-Dokey, I just sat down with my brother's bass, and figured out the 
bass line for this song, so here it is:

Chorus:

G |---------------------------------------------|
D |---------------------------------------------|
A |-------------------5-5-5-5-5-5-5------------ |
E |-5-5-5--7-7-7-7------------------------------|

Do 2x

Verse 2:
[ Tab from: http://www.guitartabs.cc/tabs/p/plankeye/bc_btab.html ]
G |--------------------------------------------------------------|
D |--------------------------------------------------------------|                 
A |-7-7-7-7-7-7-7-7-7-7-7-7-7--5-5-5-5-5-5-5-5-5-5-5-5-5---------|
E |--------------------------------------------------------------|

Do 4x

(Chorus)

Bridge:

G |--------------------------------------------------------------------|
D |--------------------------------------------------------------------|
A |------------------------------5-5-5-5-5-5-5-5-5-5-5-5---------------|
E |-7-7-7-7-7-7-7-7-7-7-7-7--------------------------------------------|

Do 2x

(Chorus)

G |--------------------|
D |--------------------|
A |-----------------0--|
E |-7-7-7-7-7--9-------|

Do 6x

Okay, there it is...corrections, ideas, and everything else I forgot to 
mention. Please E-mail me at:

skaaahhhhh@hotmail.com

Comments