Planetshakers - Jump Around Chords & Tabs

 

Jump Around Chords & Tabs

Planetshakers Chords & Tabs

Version: 1 Type: Tab 0 ratings
1 star 2 stars 3 stars 4 stars 5 stars
comments

Jump Around Tab

   
Main riff
|------------------------------------------------------------------------|
|------------------------------------------------------------------------|
|------------------------------------------------------------------------|
|---------------3~-----------5-3~~------------------3~-------------------|
|--3-5-5-3-5-3-----3-5-5-3-5----------3-5-5-3-5-3-5-----5--7--8--10------|
|------------------------------------------------------------------------|

Verse
|-------------------------------------------------------------------------|
|-------------------------------------------------------------------------|
|-------------------------------------------------------------------------|
|--------------5p3p0--5p3p0---------------------5--3~~--------------------|
|----3---5-------------------3--5------3-5-5-3----------------------------|
|-------------------------------------------------------------------------|
[ Tab from: http://www.guitartabs.cc/tabs/p/planetshakers/jump_around_tab.html ]
Pre-Chorus
|----3~~-----------------------------------------------------|
|----3~~-----------------------------------------------------|
|----4~~-----------------------------------------------------|
|----5~~--------------------Second pre chorus repeat---------|
|----5~~-----------------------------------------------------|
|----3~~----3~--4~---5~--------------------------------------|

     G		   A
Bridge
|---------------------------------------------------------------------------|
|---------------------------------------------------------------------------|
|---------------------------------------------------------------------------|
|--------------3--5--6------------3--5--6------repeat-----------------3-----|
|-----3--5---------------3--5-----------------------------3--5--5--3----5~--|
|---------------------------------------------------------------------------|

(first chorus coming out of bridge)
|----------------------------------------------------------------------|
|----------------------------------------------------------------------|
|----------------------------------------------------------------------|
|---------------3~-------------5-3~---------------3~-------------------|
|--3-5-5-3-5-3--3~--3-5-5-3-5--5-3~----3-5-5-3-5-3------5--7--8--10----|
|--3-5-5-3-5-3------3-5-5-3-5------------------------------------------|
Comments