Planetshakers - Everyone Chords & Tabs

 

Planetshakers Chords & Tabs

Version: 1 Type: Tab 0 ratings
1 star 2 stars 3 stars 4 stars 5 stars
comments

Everyone Tab

Planetshakers - Everyone tab

Intro

e|----------------------------------------------------|
B|----------------------------------------------------|
G|----------------------------------------------------|
D|----------------------------------------------------|
A|----------------------------------------------------|
D|-19-17-17-16-16-14-12--19-17-17-16-16-14-12---------|

e|-------------------------------------------------------------------------|
B|-------------------------------------------------------------------------|
G|-------------------------------------------------------------------------|
D|-------------------------------------------------------------------------|
A|-------------------------------------------------------------------------|
D|-19-17-17-16-16-14-12-12-10-12-14-12-12-10-12-14-12-12-10-7--------------|

Verse 

e|--------------------------------------|
B|--------------------------------------|
G|--------------------------------------|
D|-7-7-7-7-7-7-7-7-7-7-7-7-7-7-7-7------|
A|-7-7-7-7-7-7-7-7-7-7-7-7-7-7-7-7------|
D|-7-7-7-7-7-7-7-7-7-7-7-7-7-7-7-7------|

e|--------------------------------------|
B|--------------------------------------|
G|--------------------------------------|
D|-3-3-3-3-3-3-3-3-3-3-3-3-3-3-3-3------|
A|-3-3-3-3-3-3-3-3-3-3-3-3-3-3-3-3------|
D|-3-3-3-3-3-3-3-3-3-3-3-3-3-3-3-3------|

e|--------------------------------------|
B|--------------------------------------|
G|--------------------------------------|
D|-5-5-5-5-5-5-5-5-5-5-5-5-5-5-5-5------|
A|-5-5-5-5-5-5-5-5-5-5-5-5-5-5-5-5------|
D|-5-5-5-5-5-5-5-5-5-5-5-5-5-5-5-5------|

e|--------------------------------------|
B|--------------------------------------|
G|--------------------------------------|
D|-7-7-7-7-7-7-7-7-7-7-7-7-7-7-7-7------|
A|-7-7-7-7-7-7-7-7-7-7-7-7-7-7-7-7------|
D|-7-7-7-7-7-7-7-7-7-7-7-7-7-7-7-7------|

e|--------------------------------------|
B|--------------------------------------|
G|--------------------------------------|
D|-5-5-7--------------------------------|
A|-5-5-7--------------------------------|
D|-5-5-7--------------------------------|

e|--------------------------------------|
B|--------------------------------------|
G|--------------------------------------|
D|-7-7-7-7-7-7-7-7-7-7-7-7-7-7-7-7------|
A|-7-7-7-7-7-7-7-7-7-7-7-7-7-7-7-7------|
D|-7-7-7-7-7-7-7-7-7-7-7-7-7-7-7-7------|
[ Tab from: http://www.guitartabs.cc/tabs/p/planetshakers/everyone_tab.html ]
e|--------------------------------------|
B|--------------------------------------|
G|--------------------------------------|
D|-3-3-3-3-3-3-3-3-3-3-3-3-3-3-3-3------|
A|-3-3-3-3-3-3-3-3-3-3-3-3-3-3-3-3------|
D|-3-3-3-3-3-3-3-3-3-3-3-3-3-3-3-3------|

e|--------------------------------------|
B|--------------------------------------|
G|--------------------------------------|
D|-5-5-5-5-5-5-5-5-5-5-5-5-5-5-5-5------|
A|-5-5-5-5-5-5-5-5-5-5-5-5-5-5-5-5------|
D|-5-5-5-5-5-5-5-5-5-5-5-5-5-5-5-5------|

e|--------------------------------------|
B|--------------------------------------|
G|--------------------------------------|
D|-7-7-7-7-7-7-7-7-7-7-7-7-7-7-7-7------|
A|-7-7-7-7-7-7-7-7-7-7-7-7-7-7-7-7------|
D|-7-7-7-7-7-7-7-7-7-7-7-7-7-7-7-7------|

e|--------------------------------------|
B|--------------------------------------|
G|--------------------------------------|
D|-7-7-7-7-7-7-7-7-7-7-7-7-7-7-7-7------|
A|-7-7-7-7-7-7-7-7-7-7-7-7-7-7-7-7------|
D|-7-7-7-7-7-7-7-7-7-7-7-7-7-7-7-7------|

e|--------------------------------------|
B|--------------------------------------|
G|--------------------------------------|
D|-3-3-3-3-3-3-3-3-3-3-3-3-3-3-3-3------|
A|-3-3-3-3-3-3-3-3-3-3-3-3-3-3-3-3------|
D|-3-3-3-3-3-3-3-3-3-3-3-3-3-3-3-3------|

e|--------------------------------------|
B|--------------------------------------|
G|--------------------------------------|
D|-5-5-5-5-5-5-5-5-5-5-5-5-5-5-5-5------|
A|-5-5-5-5-5-5-5-5-5-5-5-5-5-5-5-5------|
D|-5-5-5-5-5-5-5-5-5-5-5-5-5-5-5-5------|

e|--------------------------------------|
B|--------------------------------------|
G|--------------------------------------|
D|-10-10-10-10-10-10-10-10--------------|
A|-10-10-10-10-10-10-10-10--------------|
D|-10-10-10-10-10-10-10-10--------------|

Verse is all palm muted, release palm mute slowly throught the C chord

Chorus

e|--------------------------------------|
B|--------------------------------------|
G|--------------------------------------|
D|--------------------------------------|
A|--7-7----3-3--5-5--5-5-5-5-6-6-6-6----|
D|--7-7----3-3--5-5--5-5-5-5-6-6-6-6----|

repeat all

Intro

Bridge

e|----------------------------------------------------|
B|----------------------------------------------------|
G|----------------------------------------------------|
D|-7------12------3------5----6-----------------------| 3x
A|-7-x16--12-x16--3-x16--5-x8-6-x8--------------------|
D|-7------12------3------5----6-----------------------|
 
First time play bridge with a palm mute

Chorus

End
Comments