Planetshakers - Always And Forever Chords & Tabs

 

Always And Forever Chords & Tabs

Planetshakers Chords & Tabs

Version: 1 Type: Tab

Always And Forever Tab

   
Artist: Planet Shakers
Title: Always and Forever
Album: Always and Forever
Tabbed: By Me (Renee lil_punk_rocker182@hotmail.com)

Tab is correct

Intro
Starts off with non-distorted guitar.

Figure out rhythm pattern

C     GFEC
G     GFEC
A     GFEC
EF EF EF EF


the GFEC part is played:
e|--------------------------------------------------------|
B|--------------------------------------------------------|
G|----12-12---10-10----9-9---5-5--------------------------|
D|----12-12---10-10----9-9---5-5--------------------------|
A|----10-10----8-8-----7-7---3-3--------------------------|
E|--------------------------------------------------------|

LETS Go!
Play intro with distortion

Verse (palm muted):

C5 	G5 	A5 	F5

Pre-Chorus: (Plaued twice)
[ Tab from: http://www.guitartabs.cc/tabs/p/planetshakers/always_and_forever_tab.html ]
e|--------------------------------------------------------------|
B|--------------------------------------------------------------|
G|--------------------------------------------------------------|
D|----777----33-5-----------------------------------------------|  X3
A|----777----33-5-----------------------------------------------|
E|----555----11-3-----------------------------------------------|
	    slide from F5 to G5
Then

e|-----------------------------------------------------------|
B|-----------------------------------------------------------|
G|----555--4-5-----------------------------------------------|
D|----555--5-5-----------------------------------------------|
A|----333--2-3-----------------------------------------------|
E|------- slide  --------------------------------------------|

Chorus:

C5	 G5	 A5	 F5
C5 	D/G5	 F5	 E5 F5

Bridge:

F5 E5 G5
palm mute

then build up
Finish Song on F5

ORDER Of SONG:
Intro x 2
Verse
Pre chorus
Chorus
Intro
Verse
Pre Chorus
Chorus
Bridge
Chorus X2
Bridge


Gugs writes awesome songz