Planet Smashers - Unstoppable Chords & Tabs

 

Unstoppable Chords & Tabs

Planet Smashers Chords & Tabs

Version: 1 Type: Bass Tab

Unstoppable Bass Tab

This is a really easy song, I don't have much else to say

Intro

G-------------------------|
D-------------------------|
A-5-----------3---------5-|
E-------3-----------3-----|

Verse

G-----------------------------------------------------------------|
D-----------------------------------------------------------------|
A-5-5-5-5-5-5-5-5-------------2-2-3-3-3-3-3-3-3-3---------5-5-5-5-|
E-----------------3-3-3-5-5-5---------------------3-3-3-3---------|

Chorus
[ Tab from: http://www.guitartabs.cc/tabs/p/planet_smashers/unstoppable_btab.html ]
G-----------------------------------------------|
D-----------------------------------7---7---7---|
A-3-3-3-3-3-3-3-3-----------------5---5---5---5-|
E-----------------3-3-3-3-3-3-3-3---------------|

Bridge

G------------------------------------------------------------------|
D------------------------------------------------------------------|
A-5-5-5-5-5-5-5-5----------------3-3-3-3-3-3-3-3---------5-5-5-5---|
E-----------------3-3-3-3-3-3-3-3----------------3-3-3-3-----------|

G---------------------------------------------------------------|
D---------------------------------------------------------------|
A-5-5-5-5-5-5-5-5-------------2-2-3-3-3-3-3-3-3---------5-5-5-5-|
E-----------------3-3-3-5-5-5-------------------3-3-3-3---------|