Planet Smashers - The 80 Bus Chords & Tabs

 

The 80 Bus Chords & Tabs

Planet Smashers Chords & Tabs

Version: 1 Type: Bass Tab 0 ratings
1 star 2 stars 3 stars 4 stars 5 stars
comments

The 80 Bus Bass Tab

Song: The 80 Bus 
Band:The Planet Smashers 
Album: Attack of the Planet Smashers 
By: BassD 

/=slide down \=slide up 
h=hammer on 
r or ring=let the note sound 

Intro 
G|----------------| 
D|---3/---5\------| 
A|-4----6---------| 
E|----------------| 

Pre-Verse (00:01-00:02) 
G|(x2)--------------------|(x1)---------------------------| 
D|---------------3/---5\--|---------------3/---5\---------| 
A|----3--6--3--4----6-----|----3--6--3--4----6------------| 
E|-4----------------------|-4---------------------4\1-----| 

Verse (00:14) x2 
G|--------------------------------------------------| 
D|-------------6-3---3--------------------3/---5\---| 
A|----3--6--3------6---6--3----3--6--3--4----6------| 
E|-4------------------------4-----------------------| 

G|---------------------------------------------------| 
D|-------------6-3---3---------3--4--6-----5--6--8\--| 
A|----3--6--3------6---6--3-4-----------6------------| 
E|-4-------------------------------------------------| 
[ Tab from: http://www.guitartabs.cc/tabs/p/planet_smashers/the_80_bus_btab.html ]
Chorus (00:41) 
G|(x8)--------------------------| 
D|------------------5h6-----8\--| 
A|----6-3----3--x-4-----6-6-----| 
E|-4------4---------------------| 

(Verse x2) (01:09) 
(Chorus) (01:37) 

Bridge (02:04-02:05) 
G|-----------------------------------------------| 
D|----3--4--6----5--6--8\----3--4--6----8--6--5--| 
A|-4----------6-----------4----------6-----------| 
E|-----------------------------------------------| 

G|---------------8--6--5-------------------------| 
D|----3--4--6----------------3--4--6-------------| 
A|-4----------6-----------4----------6--4--3--6--| 
E|-----------------------------------------------| 

Outro 
Chorus (02:19) 
G|(x7)--------------------------|(x1)-----------------------------| 
D|------------------5h6-----8\--|------------------5h6-----8\-----| 
A|----6-3----3--x-4-----6-6-----|----6-3----3--x-4-----6-6--------| 
E|-4------4---------------------|-4------4--------------------4r--| 
End 

Hop on the 80 Bus everyone!!! 
rancid_ska@hotmail.com
Comments