Planet Smashers - Surfin In Tofino Chords & Tabs

 

Surfin In Tofino Chords & Tabs

Planet Smashers Chords & Tabs

Version: 1 Type: Tab 0 ratings
1 star 2 stars 3 stars 4 stars 5 stars
comments

Surfin In Tofino Tab

-------------------------------------------------------------------------------
                     SURFIN IN TOFINO - The Planet Smashers 
------------------------------------------------------------------------------- 
                            Tabbed By Yann C.
                           Yan440@hotmail.com

1  - Intro 2x
2  - Verse  2x
3  - Pre chorus 1x
4  - Chorus 2x
5  - Intro 2x
6  - Verse 2x
7  - Pre chorus 1x
8  - Chorus 2x
9  - Bridge
10 - Chorus 4x
11 - End


----------------------------------Intro--------------------------------------

e|---5---5---3---2-----------------------------------------------------------|
B|---5---5---3---2-----------------------------------------------------------|
G|---7---7---5---3-----------------------------------------------------------|
D|---7---7---5---4-----------------------------------------------------------|
A|---7---7---5---x-----------------------------------------------------------|
E|---x---x---x---x-----------------------------------------------------------|

---------------------------------Verse----------------------------------------

e|---5---5---3---2-----------------------------------------------------------|
B|---5---5---3---2-----------------------------------------------------------|
G|---7---7---5---3-----------------------------------------------------------|
D|---7---7---5---4-----------------------------------------------------------|
A|---7---7---5---x-----------------------------------------------------------|
E|---x---x---x---x-----------------------------------------------------------|

----------------------------------Pre-Chorus----------------------------------
[ Tab from: http://www.guitartabs.cc/tabs/p/planet_smashers/surfin_in_tofino_tab.html ]
[--------------------][Drum Solo][---------][Drum Solo][-----]
e|--2---5---3---5---5-------------3---2---5-------------3---2----------------|
B|--2---5---3---5---5-------------3---2---5-------------3---2----------------|
G|--3---6---5---7---7-------------5---3---7-------------5---3----------------|
D|--4---7---5---7---7-------------5---4---7-------------5---4----------------|
A|--x---x---5---7---7-------------5---x---7-------------5---x----------------|
E|--x---x---x---x---x-------------x---x---x-------------x---x----------------|

----------------------------------Bridge--------------------------------------

[-------][--Slide Down--][Strum That Until The Chorus]
e|---5--------------------x--------------------------------------------------|
B|---5--------------------5--------------------------------------------------|
G|---7--------------------7--------------------------------------------------|
D|---7--------------------x--------------------------------------------------|
A|---7--------------------x--------------------------------------------------|
E|---x--------------------x--------------------------------------------------|

----------------------------------Chorus--------------------------------------

e|---5---3---2---2-----------------------------------------------------------|
B|---5---3---2---2-----------------------------------------------------------|
G|---7---5---3---3-----------------------------------------------------------|
D|---7---5---4---4-----------------------------------------------------------|
A|---7---5---x---x-----------------------------------------------------------|
E|---x---x---x---x-----------------------------------------------------------|

-----------------------------------End----------------------------------------

e|---5---3---3---------------------------------------------------------------|
B|---5---3---3---------------------------------------------------------------|
G|---7---5---4---------------------------------------------------------------|
D|---7---5---5---------------------------------------------------------------|
A|---7---5---5---------------------------------------------------------------|
E|---x---x---3---------------------------------------------------------------|
Comments