Planet Smashers - Surfin In Tofino Chords & Tabs

 

Surfin In Tofino Chords & Tabs

Planet Smashers Chords & Tabs

Version: 1 Type: Bass Tab 0 ratings
1 star 2 stars 3 stars 4 stars 5 stars
comments

Surfin In Tofino Bass Tab

Song:Surfin' in Tofino 
Band:The Planet Smashers 
Album:Life of the Party 
tabbed by:M@rK (Marc-André Caron) 


Intro & Verse 
G:--------------------------------------------------------------- 
D:------------------2-2-5-5-------------------------------------- 
A:-5-5-5-5-5->-3-3---------3-3------2-2-3-3-5-5------------------ 
E:-------------------------------3-3----------------------------- 

Pre Chorus 
G:--------------------------------------------------------------- 
D:--------------------2-5---------------------------------------- 
A:---2-5-----4-7---3------3-5-5-5-5-5---5------------------------ 
E:-3-----3-5-----5---------------------7------------------------- 


G:--------------------------------------------------------------- 
D:--------------------------------------------------------------- 
A:-3-3-3-3-3-3-3-3------------------5\--------------------------- 
E:------------------5-5-5-5-5-5-5-5------------------------------ 

[ Tab from: http://www.guitartabs.cc/tabs/p/planet_smashers/surfin_in_tofino_btab.html ]
G:--------------------------------------------------------------- 
D:--------------------------------------------------------------- 
A:-3-3-3-3-3-3-3-3----------------------------------------------- 
E:------------------5-5-5-5-5-5-5-5------------------------------

Bridge 
G:--------------------------------------------------------------- 
D:--------------------------------------------------------------- 
A:-5--------5\--------5-5-5-5-5-5->------------------------------
E:--------------------------------------------------------------- 

Chorus 
G:--------------------------------------------------------------- 
D:-----------2-5------------------------------------------------- 
A:---0-3---3----3---2-5---5-3-2----------------------------------
E:-1-----1--------3-----3--------3------------------------------- 

Ending 
G:--------------------------------------------------------------- 
D:--------------------------------------------------------------- 
A:---------3----------------------------------------------------- 
E:-1---------------3--------------------------------------------- 

Song Order: 
Intro & Verse x4 
Pre Chorus x1 
Chorus x2 
Verse x4 
Pre Chorus x1 
Chorus x2 
Bridge x1 
Chorus x4 
Ending x1
Comments