Planet Smashers - Super Orgy Porno Party Chords & Tabs

 

Super Orgy Porno Party Chords & Tabs

Planet Smashers Chords & Tabs

Version: 1 Type: Bass Tab 0 ratings
1 star 2 stars 3 stars 4 stars 5 stars
comments

Super Orgy Porno Party Bass Tab

------------------------------------------------------------------------------- 
               SUPER ORGY PORNO PARTY - The Planet Smashers 
------------------------------------------------------------------------------- 

By:BassD r=let the note sound 
/=slide down 
Intro (00:08) 
G|--------------------------------------| 
D|-----3-3------------2---3-2-----------| 
A|-3-3-----5-5------3---3-----3-5-5-----| 
E|-------------3-3------------------3-3-| 

G|------------------------------------| 
D|-----3-3----------------------------| 
A|-3-3-----5-5------3-3-3---3-5-5---5-| 
E|-------------3-3--------1-------3---| 

Verse (00:20) 
G|(x2)----------------------------------------| 
D|-----5-5-5-5-3-3-------------2---------5----| 
A|-3-3---------------3-/-5-3-5---3-5-3-5------| 
E|-----------------1-----------------------3--| 

Pre-Chorus (00:32) 
G|------------------------------------------------------------------| 
D|---------------------5-5-3-3-2-2---------------------5-5-3-3-2-2--| 
A|-5-5-3-3-2-2---------------------5-5-3-3-2-2----------------------| 
E|-------------5-5-3-3-------------------------5-5-3-3--------------| 
[ Tab from: http://www.guitartabs.cc/tabs/p/planet_smashers/super_orgy_porno_party_btab.html ]
Chorus (00:38) 
G|--------------------------------------| 
D|-----3-3------------2---3-2-----------| 
A|-3-3-----5-5------3---3-----3-5-5-----| 
E|-------------3-3------------------3-3-| 

G|------------------------------------| 
D|-----3-3----------------------------| 
A|-3-3-----5-5------3-3-3---3-5-5---5-| 
E|-------------3-3--------1-------3---| 

(Intro) (00:50) 
(Verse) (01:02) 
(Pre-Chorus) (01:15) 
(Chorus) (01:21) 
(During Sax Solo play Intro x2) (01:33) 
(Pre-Chorus) (01:57) 

Outro=Chorus (02:03) 
G|(x1)----------------------------------| 
D|-----3-3------------2---3-2-----------| 
A|-3-3-----5-5------3---3-----3-5-5-----| 
E|-------------3-3------------------3-3-| 

G|(x2)--------------------------------| 
D|-----3-3----------------------------| 
A|-3-3-----5-5------3-3-3---3-5-5---5-| 
E|-------------3-3--------1-------3---| 

G|(x1)--------------------------------------| 
D|-----3-3------------2---3-2---------------| 
A|-3-3-----5-5------3---3-----3-5-5------3r-| 
E|-------------3-3------------------3-3-----|End 

Long Live Ska Music! 
Worship the Planet Smashers! 
rancid_ska@hotmail.com 

===============================================================================
Comments