Planet Smashers - Shithead Chords & Tabs

 

Shithead Chords & Tabs

Planet Smashers Chords & Tabs

Version: 1 Type: Bass Tab 0 ratings
1 star 2 stars 3 stars 4 stars 5 stars
comments

Shithead Bass Tab

   
Song:  ShitHead 
Band:  The Planet Smashers 
Album: The Planet Smashers 
By:BassD 

h=hammer-on 
*=a pause 

Intro 
G|(x3)-----------|(x1)-------------| 
D|---------------|-----------------| 
A|------2h3-2-2--|------2h3-2-2----| 
E|-3--3----------|-3--3---------3*-| 
[ Tab from: http://www.guitartabs.cc/tabs/p/planet_smashers/shithead_btab.html ]
Verse (00:07) 
G|(x5)-----------|(x1)-------------| 
D|---------------|-----------------| 
A|------2h3-3-2--|------2h3-3-2----| 
E|-3--3----------|-3--3---------3*-| 

(Verse) (00:16) 

Outro = (Verse) (00:26) 
G|(x7)-----------|(x1)-------------| 
D|---------------|-----------------| 
A|------2h3-3-2--|------2h3-3-2----| 
E|-3--3----------|-3--3---------3*-|End 

--So I'll try the lottery and hope I win a lot of money, 
then I'll buy the company and have you work for me. Shithead.-- 
rancid_ska@hotmail.com
Comments