Planet Smashers - Pierce Me Chords & Tabs

 

Pierce Me Chords & Tabs

Planet Smashers Chords & Tabs

Version: 1 Type: Bass Tab 0 ratings
1 star 2 stars 3 stars 4 stars 5 stars
comments

Pierce Me Bass Tab

Planet Smashers - Pierce Me
tabbed by: PEZdan 
[ Tab from: http://www.guitartabs.cc/tabs/p/planet_smashers/pierce_me_btab.html ]
Intro: 
G----------------------------------- 
D---2532-----2---------------------- 
A-35----53-35-3---25---------------- 
E---------------35------------------ 
Chorus: 
G----------------------------------- 
D-----22553322---------22----------- 
A-3355--------5533-3355--33----2255- 
E--------------------------3355----- 
Verse: 
G----------------------------------- 
D-22--------22---------------------- 
A---55332233--5522------------------ 
E----------------------------------- 
Pre-Chorus: 
G----------------------------------- 
D----76----------------------------- 
A-7-7--7-99-667799------------------ 
E----------------------------------- 
End: 
G------ 
D------ 
A--3--- 
E------ 

Order: 
intro x2 
chorus x2 
verse x8 
prechorus x4 
chorus x2 
verse x12 
prechorus x4 
chorus x4 
prechorus x4 
chorus x8 
End x1 

this is my first tab, so it might be a bit wrong. if you can make something 
better, email me the renewed version to: PEZ_dan@yahoo.com 
HELP TO MAKE MORE BASS TABS FOR THE PLANET SMASHERS!!!
Comments