Planet Smashers - My Decision Chords & Tabs

 

My Decision Chords & Tabs

Planet Smashers Chords & Tabs

Version: 1 Type: Bass Tab 0 ratings
1 star 2 stars 3 stars 4 stars 5 stars
comments

My Decision Bass Tab

   
------------------------------------------------------------------------------- 
                     MY DECISION - The Planet Smashers 
------------------------------------------------------------------------------- 

By:BassD >=play a couple of time 
h=hammer on x=mute 
\=slide up 
Intro 
G|-----------------------------------------------------------------| 
D|-----------------------------------------------------------------| 
A|----3---------5--3---------5--3----------------------------------| 
E|-1-----3--3>--------3--3>--------3--3-3-3-3-3-3-3-3-3-3--3-3--3--| 
/\ / 
x6 x6 
Verse (00:11) 
G|-----------------------------------|(a) 
D|-----3-----------------------------| 
A|-5-5---5-----2-------3--------3-0--| Verse Pattern: 
E|---------3-3---3-5-5---5--3h5------| a x6 
b x1 
G|-----------------------------------|(b) c x1 
D|-----3-----------------------------| 
A|-5-5---5-----2-------3----7-5-3-0--| 
E|---------3-3---3-5-5---5-----------| 

G|------------------------------|(c) 
D|-----3------------------------| 
A|-5-5---5-----2----------------| 
E|---------3-3---3---5-5-5-5-3--| 

Chorus (00:36) 
G|------------------------------------------------------------------| 
D|------------------------------------------------------------------| 
A|-3-3-----3-3---------2-2-5-5-2-2-------------------------3-3-5----| 
E|-----5-3-----5-0-3-3-------------5-5-3-3-0-0-3-3-1-1-5-5-------5--| 

G|------------------------------------------------------------| 
D|------------------------------------------------------------| 
A|-3-3-----3-3---------2-2-5-5-2-2----------------------------| 
E|-----5-3-----5-0-3-3-------------5-5-3-3-0-0-3-3--x-1--x-1--| 

G|------------------------------------------------------------------| 
D|------------------------------------------------------------------| 
A|-3-3-----3-3---------2-2-5-5-2-2-------------------------3-3-5----| 
E|-----5-3-----5-0-3-3-------------5-5-3-3-0-0-3-3-1-1-5-5-------5--| 
[ Tab from: http://www.guitartabs.cc/tabs/p/planet_smashers/my_decision_btab.html ]
G|---------------------------------------------------------------| 
D|---------------------------------------------------------------| 
A|-3-3-----3-3---------2-2-5-5-2-2-------------------------------| 
E|-----5-3-----5-0-3-3-------------5-5-3-3-0-0-3-3--1-1-1-1-1-1--| 

(Verse) (01:01) Pattern = a x3 
b x1 
a x3 
c x1 

(Chorus) (01:26-01:27) 
(Intro) (01:51) 
(Sax Solo = Verse) (02:02-02:03) Pattern = a x3 
c x1 
Chorus (02:15) 
G|(x3)--------------------------------------------------------------| 
D|------------------------------------------------------------------| 
A|-3-3-----3-3---------2-2-5-5-2-2-------------------------3-3-5----| 
E|-----5-3-----5-0-3-3-------------5-5-3-3-0-0-3-3-1-1-5-5-------5--| 

G|(x1)----------------------------------------------------------| 
D|--------------------------------------------------------------| 
A|-3-3-----3-3---------2-2-5-5-2-2------------------------------| 
E|-----5-3-----5-0-3-3-------------5-5-3-3-0-0-3-3--x-1--x-1-1--| 

Bridge (02:40-02:41) 
G|(x3)---------|(x1)-----| 
D|-------------|---------| 
A|---7-7-5-----|---7-5---| 
E|-5-------8-7-|-5-----3-| 

Chorus (02:47) 
G|(x3)--------------------------------------------------------------| 
D|------------------------------------------------------------------| 
A|-3-3-----3-3---------2-2-5-5-2-2-------------------------3-3-5----| 
E|-----5-3-----5-0-3-3-------------5-5-3-3-0-0-3-3-1-1-5-5-------5--| 

G|---------------------------------------------------------------| 
D|---------------------------------------------------------------| 
A|-3-3-----3-3---------2-2-5-5-2-2-------------------------------| 
E|-----5-3-----5-0-3-3-------------5-5-3-3-0-0-3-3--1-1-1-1-1-1--| 

Outro (03:12) 
G|(x3)-------------|(x1)--| 
D|-----------------|------| 
A|-----7-7-5-5-----|------| 
E|-5-5---------8-7-|-5-5\-|End 

A hit song from the Smashers! 
Cool Chorus line to play! 
rancid_ska@hotmail.com 

===============================================================================
Comments