Plain White Ts - What More Do You Want Chords & Tabs

 

What More Do You Want Chords & Tabs

Plain White Ts Chords & Tabs

Version: 2 Type: Tab

What More Do You Want Tab

intro/verses
D|---------------------------------------------------------------|
A|---------------------------------------------------------------|
F|---------------------------------------------------------------|
C|2-2-----4-4-----4-5--------------------------------------------|
G|------------2-2------------------------------------------------|
D|----3-3--------------0-0---------------------------------------|
chorus guitar 1
D|-------7-7----------------10-10--------------------------------|
A|----8------8----------8---------8------------------------------|
F|7/9--9-------9----7/9---9---------9----------------------------|
C|---------------------------------------------------------------|
G|---------------------------------------------------------------|
D|---------------------------------------------------------------|
chorus guitar 2
D|---------------------------------------------------------------|
A|---------------------------------------------------------------|
F|-5--7----------------------------------------------------------|
C|-5--7----------------------------------------------------------|
G|-3--5----------------------------------------------------------|
D|---------------------------------------------------------------|
Strumming is very easy to figure out
[ Tab from: http://www.guitartabs.cc/tabs/p/plain_white_ts/what_more_do_you_want_tab_ver_2.html ]