Plain White Ts - Sad Story Chords & Tabs

 

Sad Story Chords & Tabs

Plain White Ts Chords & Tabs

Version: 1 Type: Bass Tab

Sad Story Bass Tab

Plain White T's
Sad Story

> = play until you hear not change
/ = slide
*notes are all tens, elevens twleves etc not zeroes ones and twos*

Intro
G|--------------------------------|
D|-33333333/77777777--------------|
A|--------------------------------|x2
E|--------------------------------|

Verse
G|--------------------------------|
D|-333333/777-10h12p10h12---------|
A|--------------------------------|x3
E|--------------------------------|

G|--------------------------------|
D|-777777/12-12-12-12-12-12-------|
A|--------------------------------|x1
E|--------------------------------|

G|--------------------------------|
D|-333333/777-10h12p10h12---------|
A|--------------------------------|x2
E|--------------------------------|

Pre-Chorus
G|--------------------------------|
D|-777777/12-12-12-12-12-12-------|
A|--------------------------------|x1
E|--------------------------------|

G|--------------------------------|
D|-777777/12-12-10-10-99-7--------|
A|--------------------------------|x1
E|--------------------------------|

Chorus
G|--------------------------------|
D|---------33333333------------33-|
A|-55555555--------33333333-33----|x2
E|--------------------------------|

Post-Chorus
G|--------------------------------|
D|-33333333/77777777--------------|
A|--------------------------------|x2
E|--------------------------------|

Verse
G|--------------------------------|
D|-333333/777-10h12p10h12---------|
A|--------------------------------|x3
E|--------------------------------|

G|--------------------------------|
D|-777777/12-12-12-12-12-12-------|
A|--------------------------------|x2
E|--------------------------------|
[ Tab from: http://www.guitartabs.cc/tabs/p/plain_white_ts/sad_story_btab.html ]
Pre-chorus
G|--------------------------------|   _
D|-777777/12-12-12-12-12-12-------|    |
A|--------------------------------|x1  |
E|--------------------------------|    |
                                       |x2
G|--------------------------------|    |
D|-777777/12-12-10-10-99-7--------|    |
A|--------------------------------|x1  |
E|--------------------------------|   _|

Chorus
G|--------------------------------|
D|---------33333333------------33-|
A|-55555555--------33333333-33----|x4
E|--------------------------------|

Bridge
G|--------------------------------|
D|---3>-5>------------------------|
A|-5>-----------------------------|x1
E|--------------------------------|

Guitar Solo
G|--------------------------------|
D|----33-55-33--------------------|
A|-55-----------------------------|x3
E|--------------------------------|

G|--------------------------------|
D|-12-12-12-10-10-9---------------|
A|--------------------------------|x1
E|--------------------------------|

G|--------------------------------|
D|----33-55-33--------------------|
A|-55-----------------------------|x2
E|--------------------------------|

G|--------------------------------|
D|-555-777-999-12-12-12-----------|
A|--------------------------------|x1
E|--------------------------------|

Pause

Play this on the  G|--------------|
words"anymore"    D|-10h12p10h12--|
"before" and      A|--------------|
"score"           E|--------------|

"so please"
G|--------------------------------|
D|-99-77-55-33-55-77-9------------|
A|--------------------------------|x1
E|--------------------------------|

"thought i'd"
G|--------------------------------|
D|-333333/777-10h12p10h12---------|
A|--------------------------------|x3
E|--------------------------------|

G|--------------------------------|
D|-777777/12-12-12-12-12-12-------|
A|--------------------------------|x2
E|--------------------------------|

Chorus
G|--------------------------------|
D|---------33333333------------33-|
A|-55555555--------33333333-33----|x4
E|--------------------------------|

Outro
G|--------------------------------|
D|-33333333/77777777--------------|
A|--------------------------------|x4
E|--------------------------------|