Plain White Ts - Revenge Chords & Tabs

 

Revenge Chords & Tabs

Plain White Ts Chords & Tabs

Version: 1 Type: Bass Tab

Revenge Bass Tab

Plain White T's
Revenge

x = Mute
> = Play eight times

Intro
G|----------------------|
D|----------------------|
A|33-3-5----------------|x2
E|-------55-5--3--------|
     x      x

G|----------------------|
D|----------------------|
A|-33-55-55-------------|x2
E|-----------55-33-33---|
      xx        xx        

Verse one
G|----------------------|
D|----------------------|
A|-33-55-55-------------|x6
E|-----------55-33-33---|
      xx        xx       

G|----------------------|
D|----------------------|
A|----------------------|x1
E|-3>-5>----------------|

G|----------------------|
D|----------------------|
A|-33-55-55-------------|x8
E|-----------55-33-33---|
      xx        xx       

G|----------------------|
D|----------------------|
A|----------------------|x1
E|-3>-5>----------------|
[ Tab from: http://www.guitartabs.cc/tabs/p/plain_white_ts/revenge_btab.html ]
Chorus one
G|----------------------|
D|----------------------|
A|-33-55-55-------------|x4
E|-----------55-33-33---|
      xx        xx

G|----------------------|   _
D|----------------------|    |
A|----------------------|x1  |
E|-3>>>>----------------|    |
                             |
G|----------------------|    |x2
D|----------------------|    |
A|-33-55-55-------------|x1  |
E|-----------55-33-33---|   _|
      xx        xx

G|----------------------|
D|----------------------|
A|-33-55-55-------------|x3
E|-----------55-33-33---|
      xx        xx

Verse two
G|----------------------|
D|----------------------|
A|-33-55-55-------------|x14
E|-----------55-33-33---|
      xx        xx

G|----------------------|
D|----------------------|
A|----------------------|x1
E|-3>-5>----------------|

Chorus two
G|----------------------|
D|----------------------|
A|-33-55-55-------------|x8
E|-----------55-33-33---|
      xx        xx

End
G|----------------------|
D|----------------------|
A|----------------------|x1
E|--5-------------------|