Plain White Ts - Radios In Heaven Chords & Tabs

 

Radios In Heaven Chords & Tabs

Plain White Ts Chords & Tabs

Version: 2 Type: Tab 0 ratings
1 star 2 stars 3 stars 4 stars 5 stars
comments

Radios In Heaven Tab

   
Song Name: Radios In Heaven
Band Name: Plain White T's
Submitter: Rob
email: the_velvet_ending@hotmail.com
It should be pretty much 100% correct.
please add comments and corrections.

Intro - Guitar 1 (light distortion)
e-----------------------------------|
b-----------------------------------|
g--6p4----7-7-7p6-------------------|
d------7----------7--7-7-6-6-4h6/7--|
a-----------------------------------|
E-----------------------------------|

e-----------------------------------|
b-----------------------------------|
g--6p4----7-7-7p6-------------------|
d------7----------7--7-7-6-6-4h6p4--|
a-----------------------------------|
E-----------------------------------|

Intro - Guitar 2
   A      Dsus2      E       F#m
e-----------0-----------------------|
b--2--------3--x6-------------------|
g--2--x6----2--------1--------2-----|
d--2--------0--------2--x6----4--x6-| 
a--0-----------------2--------4-----|
E--------------------0--------2-----|

Verse 1
   A      Dsus2      E       F#m
e-----------0-----------------------|
b--2--------3--x6-------------------|
g--2--x6----2--------1--------2-----|
d--2--------0--------2--x6----4--x6-| x3
a--0-----------------2--------4-----|
E--------------------0--------2-----|

   A    Dsus2    E      F#m    E
e---------0-------------------------|
b--2------3--x6---------------------|
g--2--x6--2------1-------2-----1----|
d--2------0------2--x6---4-x3--2-x3-| x1
a--0-------------2-------4-----2----|
E----------------0-------2-----0----|

   Dsus2            E
e----0------------------------------|
b----3--x12-------------------------|
g----2--------------1---------------| x1
d----0--------------2--x12----------|
a-------------------2---------------|
E-------------------0---------------|

Chorus No.1
   A       E       F#m     Dsus2
e----------------------------0------|
b--2-------------------------3--x12-|
g--2--x12--1--------2--------2------| 
d--2-------2--x12---4--x12---0------|
a--0-------2--------4---------------|
E----------0--------2---------------|

Interlude - Guitar 1
e-----------------------------------|
b-----------------------------------|
g--6p4----7-7-7p6-------------------|
d------7----------7--7-7-6-6-4h6/7--|
a-----------------------------------|
E-----------------------------------|

e-----------------------------------|
b-----------------------------------|
g--6p4----7-7-7p6-------------------|
d------7----------7--7-7-6-6-4h6p4--|
a-----------------------------------|
E-----------------------------------|

e---------------------|
b---------------------|
g---6/7--6--4--4/6----|
d---------------------|
a---------------------|
E---------------------|

Interlude - Guitar 2
   A      Dsus2      E       F#m
e-----------0-----------------------|
b--2--------3--x6-------------------|
g--2--x6----2--------1--------2-----|
d--2--------0--------2--x6----4--x6-|
a--0-----------------2--------4-----|
E--------------------0--------2-----|

Verse 2
   A      Dsus2      E       F#m
e-----------0-----------------------|
b--2--------3--x6-------------------|
g--2--x6----2--------1--------2-----|
d--2--------0--------2--x6----4--x6-| x3
a--0-----------------2--------4-----|
E--------------------0--------2-----|

   A    Dsus2    E      F#m    E
e---------0-------------------------|
b--2------3--x6---------------------|
g--2--x6--2------1-------2-----1----|
d--2------0------2--x6---4-x3--2-x3-| x1
a--0-------------2-------4-----2----|
E----------------0-------2-----0----|
[ Tab from: http://www.guitartabs.cc/tabs/p/plain_white_ts/radios_in_heaven_tab_ver_2.html ]
   Dsus2            E
e----0------------------------------|
b----3--x12-------------------------|
g----2--------------1---------------| x1
d----0--------------2--x12----------|
a-------------------2---------------|
E-------------------0---------------|

Chorus No. 2 - Guitar 1
   A       E       F#m     Dsus2
e----------------------------0------|
b--2-------------------------3--x12-|
g--2--x12--1--------2--------2------| 
d--2-------2--x12---4--x12---0------|
a--0-------2--------4---------------|
E----------0--------2---------------|

Chorus No.2 - Guitar 2 (comes in after guitar 1 plays x2)
e-----------------------------------------|
b---5----5----5----5----5----5----5----5--|
g--2-2--2-2--4-4--4-4--2-2--2-2--7-7--7-7-|
d-2----2----2----2----4----4----0----0----|
a-----------------------------------------|
E-----------------------------------------|

Solo - Guitar 1 (Rhythm)
   A      Dsus2      E       F#m
e-----------0-----------------------|
b--2--------3--x6-------------------|
g--2--x6----2--------1--------2-----| x2
d--2--------0--------2--x6----4--x6-| 
a--0-----------------2--------4-----|
E--------------------0--------2-----|

   A      Dsus2      E       F#m
e---------0-------------------0-----|
b--2------3--x6---------------3-x3--|
g--2--x6--2------1------2-----2-----| x1
d--2------0------2--x6--4-x3--0-----| 
a--0-------------2------4-----------|
E----------------0------2-----------|

Solo - Guitar 2
e-----------------------------------|
b-----------------------------------|
g--6p4----7-7-7p6-------------------|
d------7----------7--7-7-6-6-4h6/7--|
a-----------------------------------|
E-----------------------------------|
                                        x2
e-----------------------------------|
b-----------------------------------|
g--6p4----7-7-7p6-------------------|
d------7----------7--7-7-6-6-4h6p4--|
a-----------------------------------|
E-----------------------------------|

Solo - Guitar 3 
e-----------------------------------|
b---5---5----5-------5---5--5--3--0-|
g-2---2----2---2---4---4------------|
d-----------------------------------|
a-----------------------------------|
E-----------------------------------|

Interlude After Solo - Guitar 1
e-----------------------------------|
b-----------------------------------|
g----1-------------2----------------| x1
d----2-x12---------4-x12------------|
a----2-------------4----------------|
E----0-------------2----------------|

e--------------------------0--------|
b--------------------------3-x3-----|
g----1-----------2---------2--------| x2
d----2-x12-------4-x9------0--------|
a----2-----------4------------------|
E----0-----------2------------------|

e------------------------------|
b------------------------------|
g----------1-------------------| x1
d----------2-x12---------------|
a----------2-------------------|
E----------0-------------------|

e------------------------------|
b---5--------------------------|
g---7-x12------1---------------| x2
d---7----------2-x12-----------|
a---5----------2---------------|
E--------------0---------------|
  (..i hope i'm just like..)

Interlude After Solo - Guitar 2
e-------------------------------------|
b------5-------5-------5--------5-----|
g----7---7---7---7---4---4----4---4---| x2
d--0-------0-------2--------2---------|
a-------------------------------------|
E-------------------------------------|
  (..i hope i'm just like you..)

KEY CHANGE
Chorus (key change) - Guitar 1
  Bsus2      F#       G#m     Esus2  
e-----------------------------------------|
b--2-----------------------------7--------|
g--4--x12----3---------4---------9--x12---|
d--4---------4--x12----6--x12----9--------|
a--2---------4---------6---------7--------|
E------------2---------4------------------|

Chorus (key change) - Guitar 2
e-----------------------------------------|
b---7----7----7----7----7----7----7----7--|
g--4-4--4-4--6-6--6-6--4-4--4-4--9-9--9-9-|
d-4----4----4----4----6----6----9----9----|
a-----------------------------------------|
E-----------------------------------------|

End on E
That's It, please don't forget to rate.
And don't steal it either.
Comments