Plain White Ts - Hey There Delilah Chords & Tabs

 

Hey There Delilah Chords & Tabs

Plain White Ts Chords & Tabs

Version: 2 Type: Tab 0 ratings
1 star 2 stars 3 stars 4 stars 5 stars
comments

Hey There Delilah Tab

   
#----------------------------------PLEASE NOTE---------------------------------#
#This file is the author's own work and represents their interpretation of the #
#song. You may only use this file for private study, scholarship, or research. #
#------------------------------------------------------------------------------#

                       Hey There Delilah - Plain White T's                         
                             All That We Needed (2005)

Written by Plain White T's
Transcribed by John Bradley
June 2006, Alabama

Submited by JohnEdwinBradley 

#------------------------------------------------------------------------------#

   D                               F#m
e ---------------------------------------------------------------------
B -----2-------2-------2-------2-------2-------2-------2-------2-------
G -----3-------3-------3-------3-------2-------2-------2-------2-------
D -0-------0-------0-------0-------4-------4-------4-------4----------- X2
A ---------------------------------------------------------------------
E ---------------------------------------------------------------------

   D                              F#m
                                   
e ---------------------------------------------------------------------
B -----2-------2-------2-------2-------2-------2-------2-------2-------
G -----3-------3-------3-------3-------2-------2-------2-------2-------
D -0-------0-------0-------0-------4-------4-------4-------4----------- 
A ---------------------------------------------------------------------
E ---------------------------------------------------------------------

   D                              F#m 
   
e ---------------------------------------------------------------------
B -----2------2-------2-------2-------2-------2-------2-------2--------
G -----3------3-------3-------3-------2-------2-------2-------2--------
D -0------0-------0-------0-------4-------4-------4-------4------------
A ---------------------------------------------------------------------
E ---------------------------------------------------------------------

           Bm                          G                A     
   
e ---------------------------------------------------------------------
B -----2-------3-------3-------3------------3--------3-------2-------2-
G -----2-------4-------4-------4------------0--------0-------2-------2-
D ---------------------------------------------------------------------
A -0-------2-------2-------2-------0---------------------0-------0-----
E --------------------------------------3-------3----------------------

   Bm                              A               A5
    
e ---------------------------------------------------------------------
B -----3-------3-------3-------3-------2-------2-------5-------5-------
G -----4-------4-------4-------4-------2-------2-------2-------2-------
D ---------------------------------------------------------------------
A -2-------2-------2-------2-------0-------0-------0-------0-----------
E ---------------------------------------------------------------------

   D                              F#m
      
E ---------------------------------------------------------------------
B -----2-------2-------2-------2-------2-------2-------2-------2-------
G -----3-------3-------3-------3-------2-------2-------2-------2-------
D -0-------0-------0-------0-------4-------4-------4-------4-----------
A ---------------------------------------------------------------------
E ---------------------------------------------------------------------
   D                              F#m
   
e ---------------------------------------------------------------------
B -----2------2-------2-------2-------2-------2-------2--------2-------
G -----3------3-------3-------3-------2-------2-------2--------2-------
D -0------0-------0-------0-------4-------4-------4-------4------------
A ---------------------------------------------------------------------
E ---------------------------------------------------------------------

           Bm                          G                A     
       
e ---------------------------------------------------------------------
B -----2-------3-------3-------3------------3--------3-------2-------2-
G -----2-------4-------4-------4------------0--------0-------2-------2-
D ---------------------------------------------------------------------
A -0-------2-------2-------2-------0---------------------0-------0-----
E --------------------------------------3-------3----------------------

   Bm                              A               A5
 
e ---------------------------------------------------------------------
B -----3-------3-------3-------3-------2-------2-------5-------5-------
G -----4-------4-------4-------4-------2-------2-------2-------2-------
D ---------------------------------------------------------------------
A -2-------2-------2-------2-------0-------0-------0-------0-----------
E ---------------------------------------------------------------------

   D                               Bm
   
e ---------------------------------------------------------------------
B -----2-------2-------2-------2-------3-------3-------3-------3-------
G -----3-------3-------3-------3-------4-------4-------4-------2------- 
D -0-------0-------0--------------------------------------------------- X3
A -------------------------0-------2-------2-------2-------4-----------
E ---------------------------------------------------------------------

   D                               Bm
   
e ---------------------------------------------------------------------
B -----2-------2-------2-------2-------3-------3-------3-------3-------
G -----3-------3-------3-------3-------4-------4-------4-------2-------
D -0-------0-------0---------------------------------------------------
A --------------------------0-------2-------2-------2-------4----------
E ---------------------------------------------------------------------

   
   D                              
e ---------------------------
B -----2-------2-------2-----
G ------3-------3-------3----
D -0-------0-------0---------
A -------------------------0-
E ---------------------------

   D                               F#m
   
e ---------------------------------------------------------------------
B -----2-------2-------2-------2-------2-------2-------2-------2-------
G -----3-------3-------3-------3-------2-------2-------2-------2-------
D -0-------0-------0-------0-------4-------4-------4-------4-----------
A ---------------------------------------------------------------------
E ---------------------------------------------------------------------

   D                              F#m
       
e ---------------------------------------------------------------------
B -----2------2-------2-------2-------2-------2-------2-------2--------
G -----3------3-------3-------3-------2-------2-------2-------2--------
D -0------0-------0-------0-------4-------4-------4-------4------------
A ---------------------------------------------------------------------
E ---------------------------------------------------------------------
[ Tab from: http://www.guitartabs.cc/tabs/p/plain_white_ts/hey_there_delilah_tab_ver_2.html ]
           Bm                           G                A     
        
e ---------------------------------------------------------------------
B -----2-------3-------3-------3------------3--------3-------2-------2-
G -----2-------4-------4-------4------------0--------0-------2-------2-
D ---------------------------------------------------------------------
A -0-------2-------2-------2-------0---------------------0-------0-----
E --------------------------------------3-------3----------------------

   Bm                              A               A5
  
e ---------------------------------------------------------------------
B -----3-------3-------3-------3-------2-------2-------5-------5-------
G -----4-------4-------4-------4-------2-------2-------2-------2-------
D ---------------------------------------------------------------------
A -2-------2-------2-------2-------0-------0-------0-------0-----------
E ---------------------------------------------------------------------

   D                               F#m
  
e ---------------------------------------------------------------------
B -----2-------2-------2-------2-------2-------2-------2-------2-------
G -----3-------3-------3-------3-------2-------2-------2-------2-------
D -0-------0-------0-------0-------4-------4-------4-------4-----------
A ---------------------------------------------------------------------
E ---------------------------------------------------------------------

   D                              F#m
   
e ---------------------------------------------------------------------
B -----2------2-------2-------2-------2-------2-------2-------2--------
G -----3------3-------3-------3-------2-------2-------2-------2--------
D -0------0-------0-------0-------4-------4-------4-------4------------
A ---------------------------------------------------------------------
E ---------------------------------------------------------------------

           Bm                           G                A     
                      
e ---------------------------------------------------------------------
B -----2-------3-------3-------3------------3--------3-------2-------2-
G -----2-------4-------4-------4------------0--------0-------2-------2-
D ---------------------------------------------------------------------
A -0-------2-------2-------2-------0---------------------0-------0-----
E --------------------------------------3-------3----------------------
    
   Bm                              A               A5
   
e ---------------------------------------------------------------------
B -----3-------3-------3-------3-------2-------2-------5-------5-------
G -----4-------4-------4-------4-------2-------2-------2-------2-------
D ---------------------------------------------------------------------
A -2-------2-------2-------2-------0-------0-------0-------0-----------
E ---------------------------------------------------------------------

   D                               Bm
   
e ---------------------------------------------------------------------
B -----2-------2-------2-------2-------3-------3-------3-------3-------
G -----3-------3-------3-------3-------4-------4-------4-------2-------
D -0-------0-------0--------------------------------------------------- X3
A -------------------------0-------2-------2-------2-------4-----------
E ---------------------------------------------------------------------

   D                               Bm
   
e ---------------------------------------------------------------------
B -----2-------2-------2-------2-------3-------3-------3-------3-------
G -----3-------3-------3-------3-------2-------2-------2-------2-------
D -0-------0-------0---------------------------------------------------
A -------------------------0-------2-------2-------2-------2-----------
E ---------------------------------------------------------------------

   G                               A     
                   
e ---------------------------------------------------------------------
B -----3-------3-------3-------3-------2-------2-------2-------2-------
G -----0-------0-------0-------0-------2-------2-------2-------2-------
D ---------------------------------------------------------------------
A ---------------------------------0-------0-------0-------0-----------
E -3-------3-------3-------3-------------------------------------------   
 
   D                               Bm                
   
e ---------------------------------------------------------------------
B -----3-------3-------3-------3-------3-------3-------3-------3-------
G -----2-------2-------2-------2-------4-------4-------4-------4-------
D -0-------0-------0---------------------------------------------------
A -------------------------0-------2-------2-------2-------2-----------
E ---------------------------------------------------------------------       

   G                               A     
                  
e ---------------------------------------------------------------------
B -----3-------3-------3-------3-------2-------2-------2-------2-------
G -----0-------0-------0-------0-------2-------2-------2-------2-------
D ---------------------------------------------------------------------
A ---------------------------------0-------0-------0-------0-----------
E -3-------3-------3-------3-------------------------------------------  

   D                               Bm                
   
e ---------------------------------------------------------------------
B -----3-------3-------3-------3-------3-------3-------3-------3-------
G -----2-------2-------2-------2-------4-------4-------4-------4-------
D -0-------0-------0---------------------------------------------------
A -------------------------0-------2-------2-------2-------2-----------
E----------------------------------------------------------------------  

   G                               A      
   
e ---------------------------------------------------------------------
B -----3-------3-------3-------3-------2-------2-------2-------2-------
G -----0-------0-------0-------0-------2-------2-------2-------2-------
D ---------------------------------------------------------------------
A ---------------------------------0-------0-------0-------0-----------
E -3-------3-------3-------3-------------------------------------------  
  
   Bm                                                              A  
   
e ---------------------------------------------------------------------
B -----3-------3-------3-------3-------3-------3-------3---------------
G -----4-------4-------4-------4-------4-------4-------4---------------
D ---------------------------------------------------------------------
A -2-------2-------2-------2-------2-------2-------2-------2-------0---
E ---------------------------------------------------------------------   
    
                               A5          
e ---------------------------------------------------------------------
B -2-------2-------2-------2-------5-------5-------5-------5-----------
G -2-------2-------2-------2-------2-------2-------2-------2-----------
D ---------------------------------------------------------------------
A -----0-------0-------0-------0-------0-------0-------0---------------
E ---------------------------------------------------------------------       

Comments