Placebo - You Don't Care About Us Chords & Tabs

 

You Don't Care About Us Chords & Tabs

Placebo Chords & Tabs

Version: 3 Type: Tab 0 ratings
1 star 2 stars 3 stars 4 stars 5 stars
comments

You Don't Care About Us Tab

От: for www.ultimate-guitar.com 
Кому: 
Тема: New Tabs
Дата: 23 мая 2000 г. 21:50

Placebo,You dont care about us.
 Tabbed by Stephen Jones, bscully@esatclear.ie.
  
               PLACEBO-YOU DONT CARE ABOUT US
                     TAKEN FROM THE 1998 ALBUM WITHOUT YOU IM NOTHING
                              WORDS AND MUSIC BY PLACEBO
                             TRANSCRIBEB BY STEPHEN JONES
    
          This is a great song from one of the best albums of 1998. 

      STANDARD PLACEBO TUNING (FBbEbAbCF)or capo on the 1st fret

 INTRO: This is played on a bass but this riff sounds good on guitar
 
  F------------------------------------------
  C------------------------------------------
 Ab------------------------------------------
 Eb----------------------4-4-4-4-4-4-4-6-7---
 Bb--4-4-4-4-4-4-4-5-7---5-5-5-5-5-5-5-5-5---
  F--5-5-5-5-5-5-5-5-5-----------------------
 
  F------------------------------------------
  C------------------------------------------
 Ab------------------------------------------
 Eb----------------------4-4-4-4-4-2-2-2-0---
 Bb--4-4-4-4-4-4-4-5-7---5-5-5-5-5-5-5-5-5---
  F--5-5-5-5-5-5-5-5-5-----------------------

  OR YOU CAN PLAY IT LIKE THIS

  F----------------------------------------------------------
  C----------------------------------------------------------
 Ab------------------------------11-11-11-11-11-11-11-13-14--
 Eb-11-11-11-11-11-11-11-12-14---0--0--0--0--0--0--0--0--0---
 Bb-0--0--0--0--0--0--0--0--0--------------------------------
  F----------------------------------------------------------

  F----------------------------------------------------------
  C----------------------------------------------------------
 Ab------------------------------11-11-11-11-9--9--9--7--7---
 Eb-11-11-11-11-11-11-11-12-14---0--0--0--0--0--0--0--0--0---
 Bb-0--0--0--0--0--0--0--0--0--------------------------------
  F----------------------------------------------------------

 VERSE

  F--------------------------------------------------------------------
  C--------------------------------------------------------------------
 Ab--------------------------------------------------------------------
 Eb--7--7--7--6--7--6--7--7--6--7--6------------------11-11-11-11-11---
 Bb--0--0--0--0--0--0--7--7--7--7--7----9--9--9--9--9--9--9--9--9--9---
  F--------------------5--5--5--5--5---10-10-10-10-10-10-10-10-10-10---
[ Tab from: http://www.guitartabs.cc/tabs/p/placebo/you_dont_care_about_us_tab_ver_3.html ]
  F--------------------------------------------------------------------
  C--------------------------------------------------------------------
 Ab--------------------------------------------------------------------
 Eb--7--7--7--6--7--6--7--7--6--7--6----4--4--4--4--4--2--2--2--0--0---
 Bb--0--0--0--0--0--0--7--7--7--7--7----5--5--5--5--5--5--5--5--5--5---
  F--------------------5--5--5--5--5-----------------------------------

 CHORUS

  F---9--9--9--9--9--9--9---10-10-10-10-10-10-10---
  C---9--9--9--9--9--9--9---10-10-10-10-10-10-10---
 Ab--10-10-10-10-10-10-10---11-11-11-11-11-11-11---
 Eb--11-11-11-11-11-11-11---12-12-12-12-12-12-12--- x4
 Bb--11-11-11-11-11-11-11---12-12-12-12-12-12-12---
  F---9--9--9--9--9--9--9---10-10-10-10-10-10-10---

  VERSE:REPEAT VERSE1

 CHORUS:REPEAT CHORUS1

 POST CHORUS(ITS YOUR AGE, ITS MY RAGE...)

  F---------------------------------------------------------
  C---------------------------------------------------------
 Ab-13-13-13-13-13-11-11-11-11-14-14-14-14-14-13-13-13------
 Eb--0--0--0--0--0--0--0--0--0--0--0--0--0--0--0--0--0------
 Bb---------------------------------------------------------
  F---------------------------------------------------------

  F---------------------------------------------------------
  C---------------------------------------------------------
 Ab-13-13-13-13-13-11-11-11-11-18-18-18-18-18-14-14-14-16---
 Eb--0--0--0--0--0--0--0--0--0--0--0--0--0--0--0--0--0--0---
 Bb---------------------------------------------------------
  F---------------------------------------------------------

  F---------------------------------------------------------
  C---------------------------------------------------------
 Ab---------------------------------------------------------
 Eb--7-7-7-7-7-7-7-9-7---6-6-6-6-6-6-6-7-9------------------
 Bb--0-0-0-0-0-0-0-0-0---4-4-4-4-4-4-4-0-0------------------
  F---------------------------------------------------------

 VERSE:REPEAT VERSE1

 BRIDGE(ITS A MATTER OF TRUST...)
  
  F--x--x--x--x--x--x--x----x--x--x--x--x--x--x---
  C--x--x--x--x--x--x--x----x--x--x--x--x--x--x---
 Ab-10-10-10-10-10-10-10---11-11-11-11-11-11-11---
 Eb-11-11-11-11-11-11-11---12-12-12-12-12-12-12---
 Bb--x--x--x--x--x--x--x----x--x--x--x--x--x--x---
  F--9--9--9--9--9--9--9---10-10-10-10-10-10-10---

 CHORUS:REPEAT CHORUS1
 
 END BY REPEATING POST CHORUS


 ANY QUESTIONS, COMMENTS, CORRECTIONS PLEASE MAIL ME AT bsully@esatclear.ie











 
:: Ultimate Guitar Archive :: 
http://www.ultimate-guitar.com 

Comments