Placebo - You Don't Care About Us Chords & Tabs

 

You Don't Care About Us Chords & Tabs

Placebo Chords & Tabs

Version: 2 Type: Tab 0 ratings
1 star 2 stars 3 stars 4 stars 5 stars
comments

You Don't Care About Us Tab

#----------------------------------PLEASE NOTE---------------------------------#
#This file is the author's own work and represents their interpretation of the #
#song. You may only use this file for private study, scholarship, or research. #
#------------------------------------------------------------------------------#

PLACEBO
You don't care about us

Tabbed by JC (div793@Yahoo.com)

Listen to the track for the rhythm.

VERSE (INTRO) - Guitar 1 
e------------------------------------------------------------------------
B------------------------------------------------------------------------
G---------------------------0-0-0-0-0--0-0-0-0-2-3-----------------------
D---0-0-0-0-0--0-0-0-0-2-3-----------------------------------------------
A------------------------------------------------------------------------
E------------------------------------------------------------------------

e------------------------------------------------------------------------
B------------------------------------------------------------------------
G---------------------------0-0-0-0-0------------------------------------
D---0-0-0-0-0--0-0-0-0-2-3-------------3-3-3-1-1-1-0---------------------
A------------------------------------------------------------------------
E------------------------------------------------------------------------

Guitar 2 (I\'m not too sure on this bit but I think it sounds ok)
e------------------------------------------------------------------------
B-----------------------------------------3-3-3-3-3-3--------------------
G-------2-3-2-------2-2-3-2----3-3-3-3-3--3-3-3-3-3-3--------------------
D---0-0--------3-3-------------1-1-1-1-1--1-1-1-1-1-1--------------------
A------------------------------------------------------------------------
E------------------------------------------------------------------------

e------------------------------------------------------------------------
B-----------------------------------------3-3-3-3-3-3--------------------
G-------2-3-2-------2-2-3-2----3-3-3-3-3--3-3-3-3-3-3--------------------
D---0-0--------3-3-------------1-1-1-1-1--1-1-1-1-1-1--------------------
A------------------------------------------------------------------------
E------------------------------------------------------------------------


CHORUS

e------------------------------------------------------------------------
B---7-7-7-7-7--7-7-7-7-7-7----8-8-8-8-8--8-8-8-8-8-8---------------------
G---7-7-7-7-7--7-7-7-7-7-7----8-8-8-8-8--8-8-8-8-8-8---------------------
D---7-7-7-7-7--7-7-7-7-7-7----8-8-8-8-8--8-8-8-8-8-8---------------------
A---5-5-5-5-5--5-5-5-5-5-5----6-6-6-6-6--6-6-6-6-6-6---------------------
E------------------------------------------------------------------------ X4

PRE-CHORUS
[ Tab from: http://www.guitartabs.cc/tabs/p/placebo/you_dont_care_about_us_tab_ver_2.html ]
e------------------------------------------------------------------------
B---7-7-7-7-7--7-7-7-7-7-7----8-8-8-8-8--8-8-8-8-8-8---------------------
G---7-7-7-7-7--7-7-7-7-7-7----8-8-8-8-8--8-8-8-8-8-8---------------------
D---7-7-7-7-7--7-7-7-7-7-7----8-8-8-8-8--8-8-8-8-8-8---------------------
A---5-5-5-5-5--5-5-5-5-5-5----6-6-6-6-6--6-6-6-6-6-6---------------------
E------------------------------------------------------------------------ X6

BRIDGE 1
e------------------------------------------------------------------------
B---10-10-10-10-10-10-10-10---8-8-8-8-8-8-8-8----------------------------
G------------------------------------------------------------------------
D------------------------------------------------------------------------
A------------------------------------------------------------------------
E------------------------------------------------------------------------


e------------------------------------------------------------------------
B---11-11-11-11-11-11-11-11--10-10-10-10-10-10-10-10---------------------
G------------------------------------------------------------------------
D------------------------------------------------------------------------
A------------------------------------------------------------------------
E------------------------------------------------------------------------

e------------------------------------------------------------------------
B---10-10-10-10-10-10-10-10---8-8-8-8-8-8-8-8----------------------------
G------------------------------------------------------------------------
D------------------------------------------------------------------------
A------------------------------------------------------------------------
E------------------------------------------------------------------------

e------------------------------------------------------------------------
B---11-11-11-11-11-11-11-11--10-10-10-10---------------------------------
G----------------------------------------10-10-10-10---------------------
D------------------------------------------------------------------------
A------------------------------------------------------------------------
E------------------------------------------------------------------------

BRIDGE 2
e------------------------------------------------------------------------
B------------------------------------------------------------------------
G------------------------------------------------------------------------
D---8-8-8-8-8--8-8-8-8-8-8---7-7-7-7-7--7-7-7-7-8-10---------------------
A------------------------------------------------------------------------
E------------------------------------------------------------------------

e------------------------------------------------------------------------
B------------------------------------------------------------------------
G------------------------------------------------------------------------
D---8-8-8-8-8--8-8-8-8-8-8---7-7-7-7-7--7-7-7-7-8-7--8-------------------
A------------------------------------------------------------------------
E------------------------------------------------------------------------


Any comments, suggestions, corrections etc to div793@yahoo.com
Comments