Placebo - You Don't Care About Us Chords & Tabs

 

You Don't Care About Us Chords & Tabs

Placebo Chords & Tabs

Version: 1 Type: Tab 0 ratings
1 star 2 stars 3 stars 4 stars 5 stars
comments

You Don't Care About Us Tab

   
			      Placebo- You Don't Care About Us

                           From the Album: Without You I'm Nothing
                           ---------------------------------------

                                       Tabbed By J.E.



Arranged in Standard Tuning (E A D G B E) 



  Rhythm Figure 1 (Intro)

  
e|---------------|--------------|--------------|--------------|
B|---------------|--------------|--------------|--------------|
G|---------------|--------------|--------------|--------------|
D|---------------|--------------|5--5---5------|5-5-5-5h6-8---|
A|5--5---55------|5-5-5-5h6-8---|-----6----6---|--------------|
E|-----6-----6---|--------------|--------------|--------------|

e|----------------|---------------|------------|-----------------|
B|----------------|---------------|------------|-----------------|
G|----------------|---------------|------------|-----------------|
D|----------------|---------------|5---55555---|-----------------|
A|5--5---55-------|5-5-5-5h6-8----|------------|8---8-8---6--6-65|
E|-----6----6-----|---------------|------------|-----------------|

*for the last part of the intro that mimics the verse, play the last two
 groups of tab below in Rhythm Figure 2

Rhythm Figure 2 (Verse)

                                                   ~        ~  
e|---------------|----------------|---------------|-----------------|
B|---------------|----------------|---------------|-----------------|
G|3------222h3-2-|--------2-2-3-2-|---------------|7---7-7--7---7-7-|
D|3--------------|3---3-----------|3/5---5---5--5-|-----------------|
A|1--------------|----------------|---------------|-----------------|
E|---------------|----------------|---------------|-----------------|
                                                   
e|---------------|----------------|---------------|-----------------|
B|---------------|----------------|---------------|-----------------|
G|3------222h3-2-|--------2-2-2-2-|---------------|-----------------|
D|3--------------|3---3-----------|3/5---5---5--5-|5--5-5--3--3-3-3-|
A|1--------------|----------------|---------------|-----------------|
E|---------------|----------------|---------------|-----------------|

                                                   ~        ~
e|---------------|----------------|---------------|-----------------|
B|---------------|----------------|---------------|-----------------|
G|3------222h3-2-|--------2-2-2-2-|---------------|7---7-7--7---7-7-|
D|3--------------|3---3-----------|3/5---5---5--5-|-----------------|
A|1--------------|----------------|---------------|-----------------|
E|---------------|----------------|---------------|-----------------|
                                                   
e|---------------|----------------|---------------|-----------------|
B|---------------|----------------|---------------|-----------------|
G|3-3----222h3-2-|--------2-2-2-2-|---------------|-----------------|
D|3-3------------|3---3-----------|3/5---5---5--5-|3--3-3--1--1-1-0-|
A|1-1------------|----------------|---------------|-----------------|
E|---------------|----------------|---------------|-----------------|


Rhythm Figure 3 (Chorus)

e|---------------|---------------|----------------|---------------|
B|7---7---7-7-7--|7---7--7-7-7---|7/8---8---8-8-8-|8---8---8-8-8--|
G|7---7---7-7-7--|7---7--7-7-7---|7/8---8---8-8-8-|8---8---8-8-8--|
D|7---7---7-7-7--|7---7--7-7-7---|7/8---8---8-8-8-|8---8---8-8-8--|
A|5---5---5-5-5--|5---5--5-5-5---|5/6---6---6-6-6-|6---6---6-6-6--|
E|---------------|---------------|----------------|---------------|
  *Play around with the rhythm of the chords


Rhythm Figure 4 (Bridge: "It's Your Age"...)
[ Tab from: http://www.guitartabs.cc/tabs/p/placebo/you_dont_care_about_us_tab.html ]
e|17-17-17-17-17-17--|---------------------|18-18-18-18-18-18-|---------------------|
B|-------------------|---------------------|------------------|---------------------|
G|14-14-14-14-14-14--|12--12-12--12--12-12-|15-15-15-15-15-15-|14--14-14--14--14-14-|
D|-------------------|---------------------|------------------|---------------------|
A|-------------------|---------------------|------------------|---------------------|
E|-------------------|---------------------|------------------|---------------------|



  Rhythm Figure 5 (Bridge: Right after Figure 4)

1st Time

e|---------------|---------------|---------------|-----------------|
B|---------------|---------------|---------------|-----------------|
G|---------------|---------------|---------------|-----------------|
D|8---8---8---8--|8-8---8--8h10-8|7---7---7--7---|7--7---7h8h10----|
A|---------------|---------------|---------------|-----------------|
E|---------------|---------------|---------------|-----------------|

e|---------------|---------------|---------------|-----------------|
B|---------------|---------------|---------------|-----------------|
G|---------------|---------------|---------------|-----------------|
D|8---8---8---8--|8-8---8--8h10-8|7---7---7--7---|7--7---7-7-8-7---|
A|---------------|---------------|---------------|-----------------|
E|---------------|---------------|---------------|-----------------|

2nd Time

e|----------------|---------------|---------------|-----------------|
B|----------------|---------------|---------------|-----------------|
G|----------------|---------------|---------------|-----------------|
D|8---8---8---8---|8-8---8--8h10-8|7---7---7--7---|7--7---7h8h10----|
A|----------------|---------------|---------------|-----------------|
E|----------------|---------------|---------------|-----------------|

e|----------------|---------------|---------------|------------------|-------------------|
B|----------------|---------------|---------------|------------------|-------------------|
G|----------------|---------------|---------------|------------------|-------------------|
D|8---8---8---8---|8-8---8--8h10-8|7---7---7--7---|7--10-7--7--8-7---|8------------------|
A|----------------|---------------|---------------|------------------|8------------------|
E|----------------|---------------|---------------|------------------|6------------------|

*In the third measure with the A's on the D string (7's) let the natural harmonic ring 
 periodically. play with lots of gain to get it to sound like the recording. 

  
 Rhythm Figure 6 (Pre-Chorus: "It's a matter of trust")

e|---------------|---------------|----------------|---------------|
B|---------------|---------------|----------------|---------------|
G|7---7---7-7-7--|7---7--7-7-7---|8---8---8-8-8---|8---8---8-8-8--|
D|---------------|---------------|----------------|---------------|
A|5---5---5-5-5--|5---5--5-5-5---|6---6---6-6-6---|6---6---6-6-6--|
E|---------------|---------------|----------------|---------------|
  pm.............................................................
  *very heavy palm mute. 



Song Structure


Intro:          Figure 1  1x
                Figure 2  1x (last two groups of Fig. 2)

Verse    1:     Figure 2  1x

Chorus   1:     Figure 3  4x ("You don't care about us")

Verse    2:     Figure 2  1x

Chorus   2:     Figure 3  4x

Bridge   1:     Figure 4  2x ("It's Your Age")
                Figure 5  1x (1st Time part)

Verse    3:     Figure 2  1x

Pre-Chorus:     Figure 6  4x ("It's a matter of trust")

Chorus   3:     Figure 3  4x

Bridge   2:     Figure 4  2x
                Figure 5  1x (2nd Time part)



Symbol Explanation


~=  Vibrate note
/=  Slide up to next note
h=  Hammer on 
pm= Palm mute




Requests? Send to: NubioSlepp@netscape.net
Comments