Placebo - You Don't Care About Us Chords & Tabs

 

You Don't Care About Us Chords & Tabs

Placebo Chords & Tabs

Version: 1 Type: Bass Tab 0 ratings
1 star 2 stars 3 stars 4 stars 5 stars
comments

You Don't Care About Us Bass Tab

Placebo - You Dont Care About Us


Intro/Verse:

G#|-------------------------------------------------------------------------------------|
D#|-------------------------------------------------------------------------------------|
A#|------------------------9-9-9-9-9-9-9-9-11-12----------------------------------------|
F#|-9-9-9-9-9-9-9-9-10-12-------------------------9-9-9-9-9-9-9-9-10-12--------12-12-12-|

Chorus:
[ Tab from: http://www.guitartabs.cc/tabs/p/placebo/you_dont_care_about_us_btab.html ]
G#|-----------------------------------------------------------|
D#|-----------------------------------------------------------|
A#|-----------------------------------------------------------|
F#|-9--9--9--9--9--9--9--9--9--10-10-10-10-10-10-10-10-10-10--|

"It's your age..." bit:

G#|-7-7-7-7-7-7-7-7-7--7-7--7-7--7-7-7-7--7-7--7-7--7-7--7--|
D#|---------------------------------------------------------|
A#|---------------------------------------------------------|
F#|---------------------------------------------------------|

Post-bridge:

G#|-----------------------------------------------------------------------------|
D#|-----------------------------------------------------------------------------|
A#|-----------------------------------------------------------------------------|
F#|-5-5-5-5-5-5-5-5-5-4-4-4-4-4-4-4-5-7--5-5-5-5-5-5-5-4-4-4-0-0-0-0-0-4-5-4-5--|
Comments