Placebo - Without You Im Nothing Chords & Tabs

 

Without You Im Nothing Chords & Tabs

Placebo Chords & Tabs

Version: 2 Type: Tab 0 ratings
1 star 2 stars 3 stars 4 stars 5 stars
comments

Without You Im Nothing Tab

Intro and Verse:

Note: / = Strum up \ = Strum down

C  -0-0-0-0-0-0--0-0-0--0--0--0--0--0--0--0--0--0---0-0-0---
C  -0-0-0-0-0-0--0-0-0--0--0--0--0--0--0--0--0--0---0-0-0---
G# -5-5-5-5-5-5--0-0-0--9--9--9--9--9--9--9--9--9---0-0-0---
D# -4-4-4-4-4-4--0-0-0--10-10-10-10-10-10-10-10-10--0-0-0---
A# -0-0-0-0-0-0--0-0-0--0--0--0--0--0--0--0--0--0---0-0-0---
F  ---------------------------------------------------------
\ / \ / / / \ \ \ / / / / / / / / / \ \ \

C  -0-0-0-0-0-0--0-0-0----------5-5--------------------
C  -0-0-0-0-0-0--0-0-0----------5-5-0------------------
G# -5-5-5-5-5-5--0-0-0----------5-5-0------------------
D# -4-4-4-4-4-4--0-0-0----------0-0-0------------------
A# -0-0-0-0-0-0--0-0-0---0-0-0-------------------------
F  ----------------------------------------------------
\ / \ / / / \ \ \ / /


"Tick, tock..." bit:

C  ---------------------------------------------------------
C  -------1--1-0-1-0-0--------1--1-0-1----------------------
G# -------2--2----------------2--2--------------------------
D# -------2--2----------------2--2--------------------------
A# -------O--0----------------0--0-------------------------- Repeat
F  -0-0-0---------------0-0-0------------------------------- (X 2)

C  ---------------------------------------------------------
C  -------1-1-0-1-1----0-1-----1-1-0-1-1---0-1--------------
G# -------2-2------------------2-2--------------------------
D# -------3-3--------3---------3-3-------3------------------
A# -------3-3------------------3-3-------------------------- Back to 
F  -0-0-0--------------------0------------------------------ part above

"I'm unclean, a libertine..."

C  -----------------------------------------------
C  --6-6-6-6-6-6-6-6-6-6-6-6-6-6-6-6--------------
G# --7-7-7-7-7-7-7-7-7-7-7-7-7-7-7-7--------------
D# --0-0-0-0-0-0-0-0-0-0-0-0-0-0-0-0--------------
A# -----------------------------------------------
F  -----------------------------------------------
Repeat
C  ----------------------------------------------- Both (X 2)
C  --1-1-1-1-1-1-1-1-1-1-1-1-1-1-1-1-------------- 
G# --2-2-2-2-2-2-2-2-2-2-2-2-2-2-2-2--------------
D# --2-2-2-2-2-2-2-2-2-2-2-2-2-2-2-2--------------
A# --0-0-0-0-0-0-0-0-0-0-0-0-0-0-0-0--------------
F  -----------------------------------------------



[ Tab from: http://www.guitartabs.cc/tabs/p/placebo/without_you_im_nothing_tab_ver_2.html ]
C  --------6-----6-6-6-6-6-6-6-6-6-6-6-6-6-6-6--------------
C  -6-6----------6-6-6-6-6-6-6-6-6-6-6-6-6-6-6--------------
G# -7-7-0---------------------------------------------------
D# ---------------------------------------------------------
A# ---------------------------------------------------------
F  ---------------------------------------------------------

"I... take the plan..." bit:

C  --10-10-10-10-10-10-10-10-10-12-14-14-14-14-14-13-12-10-0-
C  --10-10-10-10-10-10-10-10-10-12-14-14-14-14-14-13-12-10-0-
G# ----------------------------------------------------------
D# ----------------------------------------------------------
A# ----------------------------------------------------------
F  ----------------------------------------------------------

C  ----------0---0--------------------------------------------
C  ----------0---0--------------------------------------------
G# --9--9--------9--------------------------------------------
D# -10-10-------10--------------------------------------------
A# -------0------0-------------------------------------------- Repeat both
F  ----------------------------------------------------------- parts (X 2) 

"Without you..." bit:

C  ------------------------------------------------------------------
C  -8-------8-------8------8---------8-----8-------8------8----------
G# ---10------10------10-----10--------9------9-------9------9-------
D# ------10------10------10------10-------9-------9------9------9----
A# ----------0-------0-------0-------0-------0-------0------0------0- Repeat
F  ------------------------------------------------------------------

"Without you..." bit (Brian plays this live):

C  --------------------------------------------------------------------
C  -8-------8-------8-----8---------8-----8-------8------8-------------
G# ---10------10------10-----10-------9------9-------9------9----------
D# ------10------10------10------10------10------10-----10------10-----
A# ----------0-------0-------0-------0------0--------0-------0------0-- Repeat
F  --------------------------------------------------------------------

Outro:

C  ---0----0----0----------------------
C  ---8----8----0----------------------
G# --10----9----9---0------------------
D# --10----9---------------------------
A# --------------------0---------------
F  ------------------------------------
Comments