Placebo - Where Is My Mind Chords & Tabs

 

Where Is My Mind Chords & Tabs

Placebo Chords & Tabs

Version: 1 Type: Tab 0 ratings
1 star 2 stars 3 stars 4 stars 5 stars
comments

Where Is My Mind Tab

   
-------------------------------------------------------------------------------
			     Placebo - Where is my mind
-------------------------------------------------------------------------------
Hi there..... I tried to find the tablature to this song but it was not to be
found, so here it finally is! I hope this tab will come in handy for all of
those sad people wanting to play "Where is my mind" which is placebo's nr. 1 song!
Tabbed by: Baxter0910
Email: Baxter0910@yahoo.dk

Tuning: Standard Tuning

Main Riff:

e|---------------------------------------------------------------------------------------|
B|------9----9-----9-----9----9----9-----------------------------------------------------|
G|---9----9-----6-----6---------------9--9--8--9--9--8-----------------------------------|
D|--------------------------6----6-------------------------------------------------------|
A|---------------------------------------------------------------------------------------|
E|---------------------------------------------------------------------------------------|

Steel string akustic intro/verse:

e|---------------------------------------------------------------------------------------|
B|---------------------------------------------------------------------------------------|
G|----------------6----6--------5----5--------6----6----6----7---------------------------|
D|--2----2--------6----6--------6----6--------7----7----7----7---------------------------|
A|--2----2--------4----4--------6----6--------7----7----7----7---------------------------|
E|--0----0----------------------4----4--------5----5----5----5---------------------------|

Single note guitar:
[ Tab from: http://www.guitartabs.cc/tabs/p/placebo/where_is_my_mind_tab.html ]
e|--------------------------------------------------------------------------------|
B|--------------------------------------------------------------------------------|
G|--------------------------------------------------------------------------------|
D|--------------------------------------------------------------------------------|
A|--------4-----------------------------------------------------------------------|
E|---0---------4----5-------------------------------------------------------------|
Pre Chorus thingy (palm mute):
e|---------------------------------------------------------------------------|
B|---------------------------------------------------------------------------|
G|-----------------5--5--5--5----6--6--6--6----------------10-------8-8-8-8--|
D|---2--2--2--2----6--6--6--6----7--7--7--7--7--7--7--7----11-------9-9-9-9--|
A|---2--2--2--2----6--6--6--6----7--7--7--7--7--7--7--7----11-------9-9-9-9--|
E|---0--0--0--0----4--4--4--4----5--5--5--5--5--5--5--5----9--------7-7-7-7--|

Solo(the first and the last note you slowly pull up, hold, and slowly come back down 
In doing so it the string a couple of times(( hear the song))):

e|--------------------------------------------------------------------|
B|-----------------------------------7----10----12-12-12\----15--17p--|
G|---9p----7--9h--7--------7----9-------------------------------------|
D|-------------------9h-----------------------------------------------|
A|--------------------------------------------------------------------|
E|--------------------------------------------------------------------|

Outro(main riff) with a little twist:

e|----------------------------------------------------------------------------------|
B|------9----9-----9-----9----9-----------------------------------------------------|
G|---9----9-----6-----6-------------------------------------------------------------|
D|--------------------------6-------------------------------------------------------|
A|----------------------------------------------------------------------------------|
E|----------------------------------------------------------------------------------|

I hope u like it!
If you have any questions or you want me to correct something just send a mail to:
Baxter0910@yahoo.dk

Order:

Intro x2
main riff x5
verse x2
single note: x1
pre chorus thingy: x1
Main riff: x3
verse: x2
single note: x1
pre chorus thingy: x1
Solo
Main riff: x3
verse: x2
single note: x1
pre chorus thingy: x1
Main riff: x6
Outro: x1

| /  slide up
| \  slide down
| h  hammer-on
| p  pull-off
| ~  vibrato
| +  harmonic
| x  Mute note
===============================================================================
Comments