Placebo - Twenty Years Chords & Tabs

 

Twenty Years Chords & Tabs

Placebo Chords & Tabs

Version: 3 Type: Tab 0 ratings
1 star 2 stars 3 stars 4 stars 5 stars
comments

Twenty Years Tab

   
Twenty years
Placebo
Album; once more with feeling
Por: Carlos Sandoval
ochocuatro@hotmail.com
Afinación: F, A#, D#, G#, C, C.
C--------------------------------------|
C------------------0-------------------|
G#---------------0---------------------|
D#------9----7-------------------------|
A#---7----7----------------------------|
F--------------------------------------|

C--------------------------------------|
C------------------0-------------------|
G#---------------0---------------------|
D#------7----5-------------------------|
A#---5----5----------------------------|
F--------------------------------------|

[ Tab from: http://www.guitartabs.cc/tabs/p/placebo/twenty_years_tab_ver_3.html ]
C--------------------------------------|
C------------------0-------------------|
G#---------------0---------------------|
D#------5----3-------------------------|
A#---3----3----------------------------|
F--------------------------------------|


C-------------------------------------------------------------|
C-------------------------------------------------------------|
G#----------0-------------0------------0-------------0--------|
D#------4------4------4-----4------4------------4-------------|
A#---2-------------2------------2-----------2-----------------|
F-------------------------------------------------------------|


Esto es básicamente toda la canción, no estoy 100% seguro de que este bien si tienen 
favor de mandarlas a la dirección que aparece arriba
Comments