Placebo - Twenty Years Chords & Tabs

 

Twenty Years Chords & Tabs

Placebo Chords & Tabs

Version: 2 Type: Tab 0 ratings
1 star 2 stars 3 stars 4 stars 5 stars
comments

Twenty Years Tab

Song Name: Twenty Years
Band Name: Placebo
Album: Once More With Feeling

Hi guys, this is the intro and part of the verse from the new Placebo album, which is
a "The Best Of"... Hope you like it... for any comment e-mail me to: confemi@virgilio.it
have a nice day!

[ Tab from: http://www.guitartabs.cc/tabs/p/placebo/twenty_years_tab_ver_2.html ]
|----------------|---------------|---------------|---------------|
|-------------0--|------------0--|---------------|------------0--|
|---------0------|--------0------|--------0------|--------0------|
|-----9----------|----9----------|----7-------7--|----7----------|
|---7---7---7----|--7---7---7----|--5---5---5----|--5---5---5----|
|----------------|---------------|---------------|---------------|



|---------------|---------------|------------------|
|---------------|------------0--|------------------|
|--------0---0--|--------0------|------0----0------|
|----5----------|----5----------|--------4----4----|
|--3---3---3----|--3---3---3----|--3-2-----2----2--|
|---------------|---------------|------------------|



|-------------------|
|-------------------|
|--0-----0-----0----|
|----4-----4-----4--|
|------2-----2------|
|-------------------|
Comments