Placebo - Twenty Years Chords & Tabs

 

Twenty Years Chords & Tabs

Placebo Chords & Tabs

Version: 1 Type: Tab 2 ratings
1 star 2 stars 3 stars 4 stars 5 stars
comments

Twenty Years Tab

   
Artist: Placebo
Title:  Twenty Years
Album:  Once More With Feeling (Singles 1996-2004)

Tabbed By: Daniel Brits (daniel_b11@hotmail.com)
Tuning:    F A# D# G# C C

	INTRO/VERSE:
C |--------------------------------------|
C |-----------------------------------0--|
G#|----------0------------------0--------|
D#|----9-----------9------9--------------|
A#|-7-----7-----7------7-----7-----7-----|
F |--------------------------------------|

C |--------------------------------------|
C |-----------------------------------0--|
G#|----------0------------------0--------|
D#|----7-----------7------7--------------|
A#|-5-----5-----5------5-----5-----5-----|
F |--------------------------------------|

C |--------------------------------------|
C |-----------------------------------0--|
G#|----------0------------------0--------|
D#|----5-----------5------5--------------|
A#|-3-----3-----3------3-----3-----3-----|
F |--------------------------------------|
[ Tab from: http://www.guitartabs.cc/tabs/p/placebo/twenty_years_tab.html ]
C |------------------------------------------------|
C |------------------------------------------------|
G#|----0--------0--------0--------0--------0-------|
D#|-------4--------4--------4--------4--------4----|
A#|-2--------2--------2--------2--------2--------2-|
F |------------------------------------------------|

	3RD VERSE/CLIMAX:
C |-------------------------------|
C |-------------------------------|Here you can
G#|-0-------0-------0-------0-----|just strum.
D#|-9-------7-------5-------4-----|
A#|-7-------5-------3-------2-----|Use mild distortion.
F |-------------------------------|

	OUTRO:
C |----------------------------------------|
C |----------------------------------------|
G#|-----0-----0------0-----0------0-----0--|
D#|---9-----9------7-----7------5-----5----|
A#|-7-----7------5-----5------3-----3------|
F |----------------------------------------|

C |------------------------------------------------|
C |------------------------------------------------|
G#|----0--------0--------0--------0--------0-------|
D#|-------4--------4--------4--------4--------4----|
A#|-2--------2--------2--------2--------2--------2-|
F |------------------------------------------------|
Comments