Placebo - This Picture Chords & Tabs

 

This Picture Chords & Tabs

Placebo Chords & Tabs

Version: 2 Type: Tab 0 ratings
1 star 2 stars 3 stars 4 stars 5 stars
comments

This Picture Tab

Artist: Placebo
Song: This Picture
Album: Sleeping With Ghosts

I know Placebo uses their own tuning on most of their songs but I
figured I would save everyone the trouble of tuning their guitar
anytime they want to play this song so this tab is in standard tuning.

Here's the intro, it's pretty basic. It's played on the bass but I'll
tab it here for the guitar:

|-------------------------------------------------------------|
|-------------------------------------------------------------|
|-------------------------------------------------------------|
|-------------------------------------------------------------|
|-4-4--4-4-4--4-4-4--4-4-4--4-4-4--4-4-4--4-4-4--4-4-4--4-4-4-|
|-------------------------------------------------------------|
[ Tab from: http://www.guitartabs.cc/tabs/p/placebo/this_picture_tab_ver_2.html ]
 x12 x12 x12 x12 x12 x12 x12 x12
|-------------------------------|
|-------------------------------|
|-------------------------------|
|-------------------------------|
|-4---8---4---8---1---8---9---4-|
|-------------------------------|


Then the guitar comes in. Listen to the song for the timing:

|--------------------------------------------------------------------|
|--------------------------------------------------------------------|
|--------------------------------------------------------------------|
|-6-6-6-3-3---8-3---6-6-6-3-3---4-3----8-10---8-10---6----6------4-3-|
|-------------------------------------------8---------------4--------|
|--------------------------------------------------------------------|

Then the chorus guitar with distortion is just:

 x15 x15
|-------|
|-------|
|-6--10-|
|-6--10-|
|-4---8-|
|-------|

And then there's the "Hang on" part:

 x15 x15
|-------|
|-------|
|----10-|
|-8--10-|
|-8---8-|
|-6-----|


That's the whole song. Any comments, questions, or suggestions can be
emailed to bborred@hotmail.com
Comments