Placebo - This Picture Chords & Tabs

 

This Picture Chords & Tabs

Placebo Chords & Tabs

Version: 1 Type: Tab 0 ratings
1 star 2 stars 3 stars 4 stars 5 stars
comments

This Picture Tab

   
placebo
sleeping with ghosts
this picture


mild overdrive through most of it i think.  a little heavier in 
the chorus possibly, can't tell through all the keyboards


[ Tab from: http://www.guitartabs.cc/tabs/p/placebo/this_picture_tab.html ]
 okey dokey, standard placebo tuning, f c g# d# a# f  OR 
you can put a capo on the first freats and play these notes.  OR
you can play it in standard, but play everything a fret up (barre
any open chords)
bass intro, but this is what stefan plays transcribed for guitar
 |-------------------------------------------------------------------------
 |-------------------------------------------------------------------------
 |-------------------------------------------------------------------------
 |-------------------------------------------------------------------------
 |--3-3--3-3-3--3-3-3--3-3-3-----7-7--7-7-7--7-7-7--7-7-7--3 again 7 again-
 |-------------------------------------------------------------------------
 repeat this pattern for 0    7    8    3
brian's rythm guitar, verse(every chord played 16 times)
 |-----------------------------------------------------
 |-----------------------------------------------------
 |----5-------9-----5----9---2---9---10----5-----------
 |----5-------9-----5----9---2---9---10----5-----------
 |----3-------7-----3----7---0---7---8-----3-----------
 |-----------------------------------------------------
 chorus rythm guitar same strumming as verses
 |--------------------------------------------
 |--------------------------------------------
 |--2-------9---------2-----9------all--------
 |--3-------10-------3-----10-----twice-------
 |--3-------10-------3-----10-----------------
 |--1-------8--------1------8-----------------
 verse again, then chorus, and in the breaksame strumming as verse and chorus
 |---0-----0----
 |---0-----1----
 |---1-----2----
 |---2-----2----
 |---2-----0----
 |---0----------
 repeat however many times???
and that's it, i'm hoping to put the lead bits 
up when i figure them out, but i'm sure this 
is all correct for what it is, as i watched 
him play it on graham norton (amazing performance)


By charlie
nancyboynoise@aol.com
Comments