Placebo - The Bitter End Chords & Tabs

 

The Bitter End Chords & Tabs

Placebo Chords & Tabs

Version: 7 Type: Tab 0 ratings
1 star 2 stars 3 stars 4 stars 5 stars
comments

The Bitter End Tab

   
  Bitter End - Placebo
-------------------------------------------------------------------------------
[ Tab from: http://www.guitartabs.cc/tabs/p/placebo/the_bitter_end_tab_ver_7.html ]
Tabbed by: Luke Nash
Email: lukenash700@hotmail.com
Song:  Bitter-End
Band:  Placebo
Album:  Sleeping With Ghosts
Tuning:  c c G# D# A# E
I'm 90% sure that this is the correct tab although the amount of 
times you play each chord/note might be wrong as I haven't got 
the song I tabbed it from memory.  Sorry if it's wrong but this is my first tab. 
P.S. This song rocks. 
Intro:
On intro play all on the upstroke and don't let notes ring.
c |-5-5--5-5--5-5--5-5--(Bass -------------------------------------------------|
C |-6-6--6-6--6-6--6-6--------start here)--------------------------------------|
G#|-7-7--7-7--7-7--7-7--(Drums-------------------------------------------------|
D#|----------------------------------------------------------------------------|
A#|----------------------------------------------------------------------------|
E |----------------------------------------------------------------------------|
Verse :
c |-5-5--5-5--5-5--5-5---------------------------------------------------------|
C |-6-6--6-6--6-6--6-6---------------------------------------------------------|
G#|-7-7--7-7--7-7--7-7--10-10-10-10---10-10\--9-9-9-9---9-9\--7-7-7-7---7-7\5-5|
D#|----------------------x--x--x--x----x--x---x-x-x-x---x-x---x-x-x-x---x-x-x-x|
A#|----------------------8--8--8--8----8--8\--7-7-7-7---7-7\--5-5-5-5---5-5\3-3|
E |----------------------------------------------------------------------------|
 
c |---------------------------------------------------------------------------| 
C |-5-5---5-5-----------------------------------------------------------------| 
G#|-x-x---x-x-----------------------------------------------------------------| 
D#|-3-3---3-3-----------------------------------------------------------------| 
A#|---------------------------------------------------------------------------| 
E |---------------------------------------------------------------------------|
Then:
c |-5-5--5-5--5-5--5-5---------------------------------------------------------|
C |-6-6--6-6--6-6--6-6---------------------------------------------------------|
G#|-7-7--7-7--7-7--7-7--10-10-10-10---10-10\--9-9-9-9---9-9\--7-7-7-7---7-7\5-5|
D#|----------------------x--x--x--x----x--x---x-x-x-x---x-x---x-x-x-x---x-x-x-x|
A#|----------------------8--8--8--8----8--8\--7-7-7-7---7-7\--5-5-5-5---5-5\3-3|
E |----------------------------------------------------------------------------|
 
c |---------------------------------------------------------------------------|
C |---------------------------------------------------------------------------| 
G#|-5-5---5-5/13-13-13-13---13-13\--11-11-11-11---11-11\--10-10-10-10---10-10\| 
D#|-x-x---x-x--x--x--x--x----x--x----x--x--x--x----x--x----x--x--x--x----x--x-| 
A#|-3-3---3-3/10-10-10-10---10-10\---8--8--8--8----8--8\---7--7--7--7----7--7\| 
E |---------------------------------------------------------------------------| 
 
                   
 
Chorus:
c |-5-5--5-5--5-5--5-5---------------------------------------------------------|
C |-6-6--6-6--6-6--6-6---------------------------------------------------------|
G#|-7-7--7-7--7-7--7-7--10-10-10-10---10-10\--9-9-9-9---9-9\--7-7-7-7---7-7\--5|
D#|-7-7--7-7--7-7--7-7---x--x--x--x----x--x---x-x-x-x---x-x---x-x-x-x---x-x---x|
A#|-5-5--5-5--5-5--5-5---8--8--8--8----8--8\--7-7-7-7---7-7\--5-5-5-5---5-5\--3|
E |-0-0--0-0--0-0--0-0---------------------------------------------------------|
                       
 
c |----------------------------------------------------------------------------|
C |----------------------------------------------------------------------------|
G#|-5-5-5---5-5/13-13-13-13---13-13\--11-11-11-11---11-11\--10-10-10-10---10-10|
D#|-x-x-x---x-x--x--x--x--x----x--x----x--x--x--x----x--x----x--x--x--x----x--x|
A#|-3-3-3---3-3/10-10-10-10---10-10\---8--8--8--8----8--8\---7--7--7--7----7--7|
E |----------------------------------------------------------------------------|
Outro: Guitar 1: I think there maybe two guitars here but as there is only
one guitarist in placebo I might be wrong. 
c |------------------------------------------------------------------------| 
C |------------------------------------------------------------------------| 
G#|-8-8-8-8-8-8-8-8-8-8-8-8-8-8-8-8--4-4-4-4-4-4-4-4-4-4-4-4-4-4-4-4-4-4-4-| 
D#|-8-8-8-8-8-8-8-8-8-8-8-8-8-8-8-8--4-4-4-4-4-4-4-4-4-4-4-4-4-4-4-4-4-4-4-| 
A#|-6-6-6-6-6-6-6-6-6-6-6-6-6-6-6-6--2-2-2-2-2-2-2-2-2-2-2-2-2-2-2-2-2-2-2-| 
E |------------------------------------------------------------------------| 
 
c |------------------------------------------------------------------------| 
C |------------------------------------------------------------------------| 
G#|-8-8-8-8-8-8-8-8-8-8-8-8-8-8-8-8--4-4-4-4-4-4-4-4-4-4-4-4-4-4-4-4-4-4-4-| 
D#|-8-8-8-8-8-8-8-8-8-8-8-8-8-8-8-8--4-4-4-4-4-4-4-4-4-4-4-4-4-4-4-4-4-4-4-| 
A#|-6-6-6-6-6-6-6-6-6-6-6-6-6-6-6-6--2-2-2-2-2-2-2-2-2-2-2-2-2-2-2-2-2-2-2-| 
E |------------------------------------------------------------------------|
 
then: 
c |--------------------------------------------------------------------------| 
C |--------------------------------------------------------------------------| 
G#|-8-8-8-8-8-8-8-8-8-8-8-8-8-8-8-8--4-4-4-4-4-4-4-4-4-4-4-4-4-4-4-4-4-4-4/8-| 
D#|-8-8-8-8-8-8-8-8-8-8-8-8-8-8-8-8--4-4-4-4-4-4-4-4-4-4-4-4-4-4-4-4-4-4-4/8-| 
A#|-6-6-6-6-6-6-6-6-6-6-6-6-6-6-6-6--2-2-2-2-2-2-2-2-2-2-2-2-2-2-2-2-2-2-2/6-| 
E |--------------------------------------------------------------------------| 

Guitar 2:  
c |-----------------------------------------------------------------------| 
C |-----------------------------------------------------------------------| 
G#|-----------------------------------------------------------------------| 
D#|----------------------------------10-1010-1010/8-88-88/7-77-77/5-55-55-| 
A#|-8-88-88/7-77-77/5-55-55/3-33-33---------------------------------------| 
E |-----------------------------------------------------------------------|
 
c |-----------------------------------------------------------------------| 
C |-----------------------------------------------------------------------| 
G#|-----------------------------------------------------------------------| 
D#|----------------------------------10-1010-1010/8-88-88/7-77-77/5-55-55-| 
A#|-8-88-88/7-77-77/5-55-55/3-33-33---------------------------------------| 
E |-----------------------------------------------------------------------| 
 

 
then:  
c |-------------------------------------------------------------------------| 
C |---------------------------------6-5-6-5-6-5-6-5-6-5-6-5-6-5-6-5-6-5-----| 
G#|-7-7-7-7-7-7-7-7-7-7-7-7-7-7-7-----------------------------------------9-| 
D#|-------------------------------------------------------------------------| 
A#|-------------------------------------------------------------------------| 
E |-------------------------------------------------------------------------|
End


| /  slide up
| \  slide down
| h  hammer-on
| p  pull-off
| ~  vibrato
| ^  harmonic
| x  Mute note
===============================================================================
Comments