Placebo - The Bitter End Chords & Tabs

 

The Bitter End Chords & Tabs

Placebo Chords & Tabs

Version: 6 Type: Tab 0 ratings
1 star 2 stars 3 stars 4 stars 5 stars
comments

The Bitter End Tab

[Intro]
C -----5-5--5-5--5-5--5-5--5-5--5-5--5-5--5-5--5-5-|
C -----6-6--6-6--6-6--6-6--6-6--6-6--6-6--6-6--6-6-|
G#-----7-7--7-7--7-7--7-7--7-7--7-7--7-7--7-7--7-7-|
D#-------------------------------------------------|
A#-------------------------------------------------|
F -------------------------------------------------|

[VERSE]

C -----5-5--5-5--5-5--5-5-----------------|
C -----6-6--6-6--6-6--6-6-----------------|[Since we're feeling so anesthetised]
G#-----7-7--7-7--7-7--7-7-----------------| [Reminds me of the secondtime]
D#----------------------------------------| 
A#----------------------------------------|
F ----------------------------------------|
[ Tab from: http://www.guitartabs.cc/tabs/p/placebo/the_bitter_end_tab_ver_6.html ]
C -----------------------------------------------------------|
C -----------------------------------------------------------| [In our comfort zone]
G#-----------------------------------------------------------| [That i followed you home]
D#-10-10--10-10-10-10-10-10-8𨃌-8𨃌-8---8-7-7-7-7-7-7-7-|
A#-8𨃌--8-8-8-8--8---8𨃌-8𨃌8--8---8𨃌-8𨃌8-8-|
F--6𧛲-6-6-6-6--6---6𧛲𧛲𧛲--6---6𧛲𧛲𧛲6-|

C ------------------------|
C ------------------------| 
G#------------------------|
D#--5-5-5-5-5-5-5-5-------|
A#--8-88-8𨃌8-8-------|
F---6𧛲𧛲𧛲6-------|


[Chorus]

C --------------------------------------------------------|
C --------------------------------------------------------| 
G#----10--10-10-10-10--9--9--9--9--9--7𧯟𧯟𧈅𧈅5-| 
D#--------------------------------------------------------|
A#-----8--8--8--8--8---7--7--7--7--7--5-5-5-5-5-3-3-3-3-3-|
F --------------------------------------------------------|

C ------------------------------------------------------------|
C-----13-13-13-13-13--11-11-11-11-11---10-10-10-10𨃌𨃌8-| 
G#------------------------------------------------------------|
D#----10-10-10-10-10---8--8--8--8--8-----7𧯟𧯟-5𧈅𧈅-|
A#------------------------------------------------------------|
F ------------------------------------------------------------|
Comments