Placebo - The Bitter End Chords & Tabs

 

The Bitter End Chords & Tabs

Placebo Chords & Tabs

Version: 5 Type: Tab 0 ratings
1 star 2 stars 3 stars 4 stars 5 stars
comments

The Bitter End Tab

The Bitter End - Placebo

tabbed by Claudio Pellegrino (Italy) -email: pellegrinho@hotmail.com
date: 17th march 2003
________________________________________________________________________________


Intro:

	Guit 1: x2
e|---------------------------
B|---------------------------
G|-8-88---8-88---8-88---8-88-
D|-8-88---8-88---8-88---8-88-
A|-6-66---6-66---6-66---6-66-
E|---------------------------


	Guit 2: mute



-Verse: 
	
	Guit 1: (x3)
e|-------------------------------------------------------------
B|-------------------------------------------------------------
G|-8-88---8-88---8-88---8-88-----------------------------------
D|-8-88---8-88---8-88---8-88--11111111-9-9-9-9-8-8-8-8-6-6-6-6-
A|-6-66---6-66---6-66---6-66--11111111-9-9-9-9-8-8-8-8-6-6-6-6-
E|-----------------------------9-9-9-9-7-7-7-7-6-6-6-6-4-4-4-4-
   |........STACCATO........|

           e|---------------------------------------------------------------
           B|---------------------------------------------------------------
then (x1): G|-8-88---8-88---8-88---8-88-------------------11111111-10101010-
           D|-8-88---8-88---8-88---8-88--11111111-9-9-9-9-11111111-10101010-
           A|-6-66---6-66---6-66---6-66--11111111-9-9-9-9--9-9-9-9--8-8-8-8-
           E|-----------------------------9-9-9-9-7-7-7-7-------------------


	Guit 2: (x3)
e|---------------------------------------------------------
B|---------------------------------------------------------
G|---------------------------------------------------------
D|------------------------11111111-9-9-9-9-8-8-8-8-6-6-6-6-
A|---------------------------------------------------------
E|---------------------------------------------------------

           e|---------------------------------------------------------------
           B|---------------------------------------------------------------
then (x1): G|---------------------------------------------11111111-10101010-
           D|----------------------------11111111-9-9-9-9-------------------
           A|---------------------------------------------------------------
           E|---------------------------------------------------------------



-Chorus:
[ Tab from: http://www.guitartabs.cc/tabs/p/placebo/the_bitter_end_tab_ver_5.html ]
	Guit 1: (x2)
e|-----------------------------------------------------------------------
B|----------7----9----11-------------------------------------------------
G|-----8-----------------------------------------------------------------
D|----------------------------------11-1111-1111/9-99-99/8-88-88/6-66-66-
A|---6----6----6----6----------------------------------------------------
E|-----------------------------------------------------------------------
    |......KEYBORD......|

	Guit 2: (x2)
e|-----------------------------------------------------------------------
B|-----------------------------------------------------------------------
G|-----------------------------------------------------------------------
D|----------------------------------11-1111-1111/9-99-99/8-88-88/6-66-66-
A|--9-99-99/8-88-88/6-66-66/4-44-44--------------------------------------
E|-----------------------------------------------------------------------



-Outro:

	Guit 1: (x2)
e|------------------------------------------------------------------------
B|------------------------------------------------------------------------
G|-8-8-8-8-8-8-8-8-8-8-8-8-8-8-8-8--4-4-4-4-4-4-4-4-4-4-4-4-4-4-4-4-4-4-4-
D|-8-8-8-8-8-8-8-8-8-8-8-8-8-8-8-8--4-4-4-4-4-4-4-4-4-4-4-4-4-4-4-4-4-4-4-
A|-6-6-6-6-6-6-6-6-6-6-6-6-6-6-6-6--2-2-2-2-2-2-2-2-2-2-2-2-2-2-2-2-2-2-2-
E|------------------------------------------------------------------------

	then: (x1)
e|--------------------------------------------------------------------------
B|--------------------------------------------------------------------------
G|-8-8-8-8-8-8-8-8-8-8-8-8-8-8-8-8--4-4-4-4-4-4-4-4-4-4-4-4-4-4-4-4-4-4-4/8-
D|-8-8-8-8-8-8-8-8-8-8-8-8-8-8-8-8--4-4-4-4-4-4-4-4-4-4-4-4-4-4-4-4-4-4-4/8-
A|-6-6-6-6-6-6-6-6-6-6-6-6-6-6-6-6--2-2-2-2-2-2-2-2-2-2-2-2-2-2-2-2-2-2-2/6-
E|--------------------------------------------------------------------------
  |.......... STACCATO ...........|


	Guit 2: (x2)
e|-----------------------------------------------------------------------
B|-----------------------------------------------------------------------
G|-----------------------------------------------------------------------
D|----------------------------------11-1111-1111/9-99-99/8-88-88/6-66-66-
A|-9-99-99/8-88-88/6-66-66/4-44-44---------------------------------------
E|-----------------------------------------------------------------------

	then: (x1)
e|-------------------------------------------------------------------------   
B|---------------------------------7-6-7-6-7-6-7-6-7-6-7-6-7-6-7-6-4-7-6---  
G|-8-8-8-8-8-8-8-8-8-8-8-8-8-8-8-8---------------------------------------8-
D|-------------------------------------------------------------------------
A|-------------------------------------------------------------------------
E|-------------------------------------------------------------------------


this tab is pratically 100% perfect, made for two guitars, but playable also with one.
for comments or other tabs, please mail at pellegrinho@hotmail.com

take it easy!
Comments