Placebo - The Bitter End Chords & Tabs

 

The Bitter End Chords & Tabs

Placebo Chords & Tabs

Version: 4 Type: Tab 0 ratings
1 star 2 stars 3 stars 4 stars 5 stars
comments

The Bitter End Tab

Title: the bitter end
Artist: placebo
Tabb BY: Daniel "Arnni" Greenwood
comments: This is an ace song, and i hope u ejoy it i'm 78% sure it rite.
Hope you like it also. Big Shouts to Locker 42
any way \m/ROCK\m/ 


e|5------------5-----5-------|
b|5-6----------5-6---5-6-----|
g|5--7---------5--7--5--7----|
d|5--7---------5--7--5--7----| x4
a|5---pause----5--7--5-------|
E|---------------------------|



Verse 1

e|-----------------------------------------------------------------------|
B|-----------------------------------------------------------------------|
G|-10-10-10-10---10-10\--9-9-9-9---9-9\--7-7-7-7---7-7\--5-5-5-5---5-5/--|
D|--x--x--x--x----x--x---x-x-x-x---x-x---x-x-x-x---x-x---x-x-x-x---x-x---|
A|--8--8--8--8----8--8\--7-7-7-7---7-7\--5-5-5-5---5-5\--3-3-3-3---3-3/--|
E|-----------------------------------------------------------------------|

e|-------------------------------------------------------------------|
B|-13-13-13-13---13-13\--11-11-11-11---11-11\--10-10-10-10---10-10\--|
G|--x--x--x--x----x--x----x--x--x--x----x--x----x--x--x--x----x--x---|
D|-10-10-10-10---10-10\---8--8--8--8----8--8\---7--7--7--7----7--7\--|
A|-------------------------------------------------------------------|
E|-------------------------------------------------------------------|

chorus

e|-----------------------------------------------------------------------|
B|-----------------------------------------------------------------------|
G|-10-10-10-10---10-10\--9-9-9-9---9-9\--7-7-7-7---7-7\--5-5-5-5---5-5/--|
D|--x--x--x--x----x--x---x-x-x-x---x-x---x-x-x-x---x-x---x-x-x-x---x-x---|
A|--8--8--8--8----8--8\--7-7-7-7---7-7\--5-5-5-5---5-5\--3-3-3-3---3-3/--|
E|-----------------------------------------------------------------------|

e|-------------------------------------------------------------------|
B|-13-13-13-13---13-13\--11-11-11-11---11-11\--10-10-10-10---10-10\--|
G|--x--x--x--x----x--x----x--x--x--x----x--x----x--x--x--x----x--x---|
D|-10-10-10-10---10-10\---8--8--8--8----8--8\---7--7--7--7----7--7\--|
A|-------------------------------------------------------------------|
E|-------------------------------------------------------------------|

Verse 2

e|-----------------------------------------------------------------------|
B|-----------------------------------------------------------------------|
G|-10-10-10-10---10-10\--9-9-9-9---9-9\--7-7-7-7---7-7\--5-5-5-5---5-5/--|
D|--x--x--x--x----x--x---x-x-x-x---x-x---x-x-x-x---x-x---x-x-x-x---x-x---|
A|--8--8--8--8----8--8\--7-7-7-7---7-7\--5-5-5-5---5-5\--3-3-3-3---3-3/--|
E|-----------------------------------------------------------------------|
[ Tab from: http://www.guitartabs.cc/tabs/p/placebo/the_bitter_end_tab_ver_4.html ]
e|-------------------------------------------------------------------|
B|-13-13-13-13---13-13\--11-11-11-11---11-11\--10-10-10-10---10-10\--|
G|--x--x--x--x----x--x----x--x--x--x----x--x----x--x--x--x----x--x---|
D|-10-10-10-10---10-10\---8--8--8--8----8--8\---7--7--7--7----7--7\--|
A|-------------------------------------------------------------------|
E|-------------------------------------------------------------------|

chorus

e|-----------------------------------------------------------------------|
B|-----------------------------------------------------------------------|
G|-10-10-10-10---10-10\--9-9-9-9---9-9\--7-7-7-7---7-7\--5-5-5-5---5-5/--|
D|--x--x--x--x----x--x---x-x-x-x---x-x---x-x-x-x---x-x---x-x-x-x---x-x---|
A|--8--8--8--8----8--8\--7-7-7-7---7-7\--5-5-5-5---5-5\--3-3-3-3---3-3/--|
E|-----------------------------------------------------------------------|

e|-------------------------------------------------------------------|
B|-13-13-13-13---13-13\--11-11-11-11---11-11\--10-10-10-10---10-10\--|
G|--x--x--x--x----x--x----x--x--x--x----x--x----x--x--x--x----x--x---|
D|-10-10-10-10---10-10\---8--8--8--8----8--8\---7--7--7--7----7--7\--|
A|-------------------------------------------------------------------|
E|-------------------------------------------------------------------|


solo( not sure on this)
e|----------------------------------------------------------|
B|----------------------------------------------------------|
G|--7-7-7-7---7-7\--5-5-5-5---5-5/-17-17-17--17-17--11-11---|
D|--x--x--x---x-x---x-x-x-x---x-x---x-x---x--x---x---x--x---|
A|--5-5-5-5---5-5\--3-3-3-3---3-3/-15-15-15--15--15--8--8---|
E|----------------------------------------------------------|

chorus

e|-----------------------------------------------------------------------|
B|-----------------------------------------------------------------------|
G|-10-10-10-10---10-10\--9-9-9-9---9-9\--7-7-7-7---7-7\--5-5-5-5---5-5/--|
D|--x--x--x--x----x--x---x-x-x-x---x-x---x-x-x-x---x-x---x-x-x-x---x-x---|
A|--8--8--8--8----8--8\--7-7-7-7---7-7\--5-5-5-5---5-5\--3-3-3-3---3-3/--|
E|-----------------------------------------------------------------------|

e|-------------------------------------------------------------------|
B|-13-13-13-13---13-13\--11-11-11-11---11-11\--10-10-10-10---10-10\--|
G|--x--x--x--x----x--x----x--x--x--x----x--x----x--x--x--x----x--x---|
D|-10-10-10-10---10-10\---8--8--8--8----8--8\---7--7--7--7----7--7\--|
A|-------------------------------------------------------------------|
E|-------------------------------------------------------------------|

-------------
that about it

enjoy from me rate this plz :)
Comments