Placebo - The Bitter End Chords & Tabs

 

The Bitter End Chords & Tabs

Placebo Chords & Tabs

Version: 3 Type: Tab 0 ratings
1 star 2 stars 3 stars 4 stars 5 stars
comments

The Bitter End Tab

Placebo - Bitter End
[ Tab from: http://www.guitartabs.cc/tabs/p/placebo/the_bitter_end_tab_ver_3.html ]
Intro
e|------------------------------------------------------------------------|
B|-8-8--8--8-8------------------------------------------------------------|
G|-8-8--8--8-8------------------------------------------------------------|
D|-8-8--8--8-8------------------------------------------------------------|
A|-6-6--6--6-6------------------------------------------------------------|
E|------------------------------------------------------------------------|
Verse
e|------------------------------------------------------------------------|
B|--8--8--8---------------------------------------------------------------|
G|--8--8--8---4-4-4-4-----------------------------------------------------|
D|--8--8--8---4-4-4-4-----------------------------------------------------|
A|--6--6--6---2-2-2-2-----------------------------------------------------|
E|------------------------------------------------------------------------|
Chorus
e|------------------------------------------------------------------------|
B|--7-7-7-7-7-7--6--6-6-6--6--9-9-9-9--9----------------------------------|
G|-------------------------------------------------8-8--8-8-8-------------|
D|------------------------------------------------------------------------|
A|------------------------------------------------------------------------|
E|------------------------------------------------------------------------|

e|------------------------------------------------------------------------|
B|------------------------------------------------------------------------|
G|-13-11-10--8------------------------------------------------------------|
D|-x---x---x---x----------------------------------------------------------|
A|-11-9---8---6-----------------------------------------------------------|
E|------------------------------------------------------------------------|
Comments