Placebo - The Bitter End Chords & Tabs

 

The Bitter End Chords & Tabs

Placebo Chords & Tabs

Version: 1 Type: Tab 1 rating
1 star 2 stars 3 stars 4 stars 5 stars
comments

The Bitter End Tab

Author/Artist: Placebo
Title: The Bitter End 
Album: Sleeping With Ghosts
Transcribed by: Matt Edwards
Email: MattTheJackass@aol.com

This song is in drop D tuning (DADGBE).
I think/hope it is correct, it sounds it if you play along.


Intro: 

E|---x----x-x---
B|---7----7-7---
G|---8----8-8---
D|---8----8-8---
A|---9----9-9---
D|---x----x-x---


Verse:

E|---x----x-x---4------------------------------------
B|---7----7-7---T------------------------------------
G|---8----8-8---I------------------------------------
D|---8----8-8---M---11-11-11-11-11-11-11-11----------
A|---9----9-9---E----9--9--9--9--9--9--9--9----------
D|---x----x-x---S----9--9--9--9--9--9--9--9----------

E|---------------------------------------------------
B|---------------------------------------------------
G|---------------------------------------------------
D|---9-9-9-9-9-9-9-9---9--9--9--9--9--9--9--9--------
A|---9-9-9-9-9-9-9-9---14-14-14-14-14-14-14-14-------
D|---9-9-9-9-9-9-9-9---9--9--9--9--9--9--9--9--------

E|---------------------------------------------------
B|---------------------------------------------------
G|---------------------------------------------------
D|---9--9--9--9--9--9--9--9--------------------------
A|---11-11-11-11-11-11-11-11-------------------------
D|---9--9--9--9--9--9--9--9--------------------------


Chorus:
[ Tab from: http://www.guitartabs.cc/tabs/p/placebo/the_bitter_end_tab.html ]
E|----------------------------------------------------
B|----------------------------------------------------
G|---11-11-11-11-11-11-11-11---10-10-10-10-10-10-10-10
D|----x--x--x--x--x--x--x--x----x--x--x--x--x--x--x--x
A|----9--9--9--9--9--9--9--9----8--8--8--8--8--8--8--8
D|----------------------------------------------------

E|----------------------------------------------------
B|----------------------------------------------------
G|---8-8-8-8-8-8-8-8---6-6-6-6-6-6-6-6---18-18-18-18--
D|---x-x-x-x-x-x-x-x---x-x-x-x-x-x-x-x----x--x--x--x--
A|---6-6-6-6-6-6-6-6---4-4-4-4-4-4-4-4---16-16-16-16--
D|----------------------------------------------------

E|----------------------------------------------------
B|----------------------------------------------------
G|---18-18-18-18---16-16-16-16-16-16-16-16---15-15----
D|----x--x--x--x----x--x--x--x--x--x--x--x----x--x----
A|---16-16-16-16---14-14-14-14-14-14-14-14---13-13----
D|----------------------------------------------------

E|----------------------------------------------------
B|----------------------------------------------------
G|---15-15-15-15-15-15---13-13-13-13-13-13-13-13------
D|----x--x--x--x--x--x----x--x--x--x--x--x--x--x------
A|---13-13-13-13-13-13---11-11-11-11-11-11-11-11------
D|----------------------------------------------------

Thats it! To get the rhythm's etc just listen to the song.
Enjoy!
Comments