Placebo - Summers Gone Chords & Tabs

 

Summers Gone Chords & Tabs

Placebo Chords & Tabs

Version: 1 Type: Tab 0 ratings
1 star 2 stars 3 stars 4 stars 5 stars
comments

Summers Gone Tab

Verve/Intro:

C  -0--0-0-0-0-0-0-0-0-0-0-0-0-0-0-0-0-0--0-0-0-0-0-0-0-0-0-0-0-0-0-0-0-0--
C  -0--0-0-0-0-0-0-0-0-0-0-0-0-0-0-0-0-0--0-0-0-0-0-0-0-0-0-0-0-0-0-0-0-0--
G# -0--0-0-0-0-0-0-0-0-0-0-0-0-0-0-0-0-0--0-0-0-0-0-0-0-0-0-0-0-0-0-0-0-0--
D# -4--4-4-4-4-2-0-7*9-9-9-9-9-9-9-9-9-4--4-4-4-4-2-0-5-5-5-5-5-5-5-5-5-5--
A# ------------------------------------------------------------------------
F  ------------------------------------------------------------------------

"You try to break the mould...." bit:


C  -0-0-0-0--0-0-0-0--0--0-0--0-0-0-0-0-0--0-0--0---0-0-0--0-0----
C  -0-0-0-0--0-0-0-0--0--0-0--0-0-0-0-0-0--0-0--0---0-0-0--0-0----
G# -0-0-0-0--0-0-0-0--0--0-0--0-0-0-0-0-0--0-0--0---0-0-0--0-0----
D# -5-5-5-5--5-5-5-5--5--5-5--5-5-4-4-4-4--4-4--4---4-4-4--4-4----
A# -3-3-3-3--3-3-3-3--3--3-3--3-3-2-2-2-2--2-2--2---2-2-2--2-2----Repeat
F  ---------------------------------------------------------------X2

"You try to break the mould...." bit, Guitar 2:
[ Tab from: http://www.guitartabs.cc/tabs/p/placebo/summers_gone_tab.html ]
C  ---------------------------------------------------------
C  ---------------------------------------------------------
G# ---------------------------------------------------------
D# ---------------------------------------------------------
A# -19---17----15---14-----17-----15----14------------------Repeat
F  ---------------------------------------------------------X2

"Sing for your lover..." monologue:

C  -7-7-7-7--7-7--7-7-7--7-7-7-7--3-3-3-3--3--3-3-3-3--3----
C  -7-7-7-7--7-7--7-7-7--7-7-7-7--3-3-3-3--3--3-3-3-3--3----
G# -0-0-0-0--0-0--0-0-0--0-0-0-0--0-0-0-0--0--0-0-0-0--0----
D# ---------------------------------------------------------
A# ---------------------------------------------------------
F  ---------------------------------------------------------


C  -7-7-7-7-7--7-7-7-7-7--8-8-8-8-8-8-8-8-8-8-8----
C  -7-7-7-7-7--7-7-7-7-7--8-8-8-8-8-8-8-8-8-8-8----
G# -0-0-0-0-0--0-0-0-0-0--0-0-0-0-0-0-0-0-0-0-0----
D# ------------------------------------------------
A# ------------------------------------------------Repeat both bits
F  ------------------------------------------------X2
Comments