Placebo - Spite And Malice Chords & Tabs

 

Spite And Malice Chords & Tabs

Placebo Chords & Tabs

Version: 1 Type: Bass Tab 0 ratings
1 star 2 stars 3 stars 4 stars 5 stars
comments

Spite And Malice Bass Tab

   
Placebo - Spite & Malice

standard placebo tuning: G#, D#, A#, F


Verse A:

G# -------------------------------------------------
D# -3--3--3---3-3--3-3-3-3---3--3--3---3-3--3-3-3-3-
A# -------------------------------------------------
F-------------------------------------------------


G# -------------------------------------------------
D# -2--2--2---2-2--2-2-2-2---2--2--2---2-2--2-2-2-2-
A# -------------------------------------------------
F-------------------------------------------------

G# ------------------------------------------------------------------------
D# ------------------------------------------------------------------------
A# -----------------------3--3--3---3-3--3-3-3-3---3--3--3---3-3--3-3-3-3-2
F-0--0--0--0--3--3--3--3-------------------------------------------------

G# -----------------------------------------------
D# -----------------------------------------------
A# ------------------------------------2--2--2--2-
F-0--0--0---0-0--0-0-0-0---0--0--0--0-----------


Verse B:

G# -------------------------------------------------
D# -3--3--3---3-3--3-3-3-3---3--3--3---3-3--3-3-3-3-
A# -------------------------------------------------
F-------------------------------------------------

G# -------------------------------------------------
D# -2--2--2---2-2--2-2-2-2---2--2--2---2-2--2-2-2-2-
A# -------------------------------------------------
F-------------------------------------------------
[ Tab from: http://www.guitartabs.cc/tabs/p/placebo/spite_and_malice_btab.html ]
G# -----------------------
D# -----------------------
A# -----------------------
F-0--0--0--0--3--3--3--3


Verse C:

G# -------------------------------------------------
D# -3--3--3---3-3--3-3-3-3---3--3--3---3-3--3-3-3-3-
A# -------------------------------------------------
F-------------------------------------------------

G# -------------------------------------------------
D# -2--2--2---2-2--2-2-2-2---2--2--2---2-2--2-2-2-2-
A# -------------------------------------------------
F-------------------------------------------------

G# -----------------------------------------------
D# -----------------------------------------------
A# ------------------------------------2--2--2--2-
F-0--0--0---0-0--0-0-0-0---0--0--0--0-----------


Verse D:

G# -------------------------------------------------
D# -3--3--3---3-3--3-3-3-3---3--3--3---3-3--3-3-3-2-
A# -------------------------------------------------
F-------------------------------------------------

G# -------------------------------------------------
D# -------------------------------------------------
A# -3--3--3---3-3--3-3-3-3---2--2--2--2-------------
F -------------------------------------3--3--3--3--


Bridge:

G# -------------------------------------------------
D# -------------------------------------------------
A# --------------------3----------------------------
F-0--0--0--0/3--3--3------------------------------


Order:
verse A
verse B
verse C
verse B
verse C
verse A
skip verse B
verse C
verse B
verse C
verse D 4x
Bridge 6x
verse D 4x
Comments