Placebo - Special Needs Chords & Tabs

 

Special Needs Chords & Tabs

Placebo Chords & Tabs

Version: 4 Type: Tab 0 ratings
1 star 2 stars 3 stars 4 stars 5 stars
comments

Special Needs Tab

Canción: SPECIAL NEEDS
Banda: PLACEBO
Album: SLEEPING WITH GHOSTS
Por: Benjamin Jonathan Garcia Melo
Comentarios: bethan1031@hotmail.com


""" ¡¡¡Esta es la afinacion  que debes tener de las cuerdas en la guitarra 


Primera Cuerda - e  ( mi )
Segunda Cuerda - b  ( si )
Tercera Cuerda - g  ( sol )
Cuarta Cuerda -  d  ( re )
Quinta Cuerda -  a  ( la )
Sexta Cuerda  -  F# ( FA#)"sostenido" (( para hacer esto, la sexta cuerda presionada
en el tercer traste debe sonar como la quinta)) 


INTRO: 

e |------------------------------------|
b |------------------------------------|
g |------------------------------------|
d |------------------------------------|  X4
a |-----8-8-8-8-8h9-9-----9/4-4-4-4-4--|
F#|-0-0-*-*-*-*-----0-0-0-----0---0----|

Durante el intro y el verso se toca esta misma figura


VERSO 1:

Remember me when you're the one who's silver screen
Remember me when you're the one you always dreamed
Remember me whenever noses start to bleed
Remember me, special needs

e |------------------------------------|
b |------------------------------------|
g |------------------------------------|
d |------------------------------------|
a |-----8-8-8-8-8h9-9-----9/4-4-4-4-4--|
F#|-0-0-*-*-*-*-----0-0-0-----0---0----|


Coro:

Just 19 and sucker's dream I guess I thought you had the flavour


e |----------------------------------------------------------------------|
b |----------------------------------------------------------------------|
g |-8-8-8-8-8-8-8-8-8-8-8-8-8-8-8-8--------------------------------------|
d |-8-8-8-8-8-8-8-8-8-8-8-8-8-8-8-8--------------------------------------|
a |-6-6-6-6-6-6-6-6-6-6-6-6-6-6-6-6-------8-8-8-8-8h9-9-----9/4-4-4-4-4--|
F#|-----------------------------------0-0-*-*-*-*-----0-0-0-----0---0----|


Just 19 and dream obscene with six months off for bad behaviour

e |-------------------------------------------------------------------------|
b |-------------------------------------------------------------------------|
g |-8-8-8-8-8-8-8-8-8-8-8-8-8-8-8-8-----------------------------------------|
d |-8-8-8-8-8-8-8-8-8-8-8-8-8-8-8-8-----------------------------------------|
a |-6-6-6-6-6-6-6-6-6-6-6-6-6-6-6-6------8-8-8-8-8h9-9-----9/13-13-13-1313~~|
F#|----------------------------------0-0-*-*-*-*-----0-0-0------*--*--*--*--|


VERSO 2:

Remember me when you clinch your movie deal
And think of me stuck in my chair that has four wheels
Remember me through flash photography and screams
Remember me, special dreams

e |------------------------------------|
b |------------------------------------|
g |------------------------------------|
d |------------------------------------|
a |-----8-8-8-8-8h9-9-----9/4-4-4-4-4--|
F#|-0-0-*-*-*-*-----0-0-0-----0---0----|


CORO:

Just 19 this sucker's dream I guess I thought you had the flavour
Just 19 and dream obscene with six months off for bad behaviour
Just 19 and sucker's dream I guess I thought you had the flavour
[ Tab from: http://www.guitartabs.cc/tabs/p/placebo/special_needs_tab_ver_4.html ]
e |----------------------------------------------------------------------|
b |----------------------------------------------------------------------|
g |-8-8-8-8-8-8-8-8-8-8-8-8-8-8-8-8--------------------------------------|
d |-8-8-8-8-8-8-8-8-8-8-8-8-8-8-8-8--------------------------------------|
a |-6-6-6-6-6-6-6-6-6-6-6-6-6-6-6-6-------8-8-8-8-8h9-9-----9/4-4-4-4-4--|
F#|-----------------------------------0-0-*-*-*-*-----0-0-0-----0---0----|

Just 19 and dream obscene with six months off for bad behaviour

e |-------------------------------------------------------------------------|
b |-------------------------------------------------------------------------|
g |-8-8-8-8-8-8-8-8-8-8-8-8-8-8-8-8-----------------------------------------|
d |-8-8-8-8-8-8-8-8-8-8-8-8-8-8-8-8-----------------------------------------|
a |-6-6-6-6-6-6-6-6-6-6-6-6-6-6-6-6------8-8-8-8-8h9-9-----9/13-13-13-13-13~|
F#|----------------------------------0-0-*-*-*-*-----0-0-0------*--*--*--*--|



Remember me...


e |------------------------------------|
b |------------------------------------|
g |------------------------------------|
d |------------------------------------|  X4  ((4 VECES MAS CON DISTORCION))
a |-----8-8-8-8-8h9-9-----9/4-4-4-4-4--|
F#|-0-0-*-*-*-*-----0-0-0-----0---0----|


¡¡¡¡¡¡¡¡¡¡¡¡¡¡Durante el solo se sigue la misma figura con distorcion¡¡¡¡¡¡¡¡¡¡¡¡¡¡¡


Just 19 this sucker's dream I guess I thought you had the flavour
Just 19 and dream obscene with six months off for bad behaviour
Just 19 and sucker's dream I guess I thought you had the flavour

e |----------------------------------------------------------------------|
b |----------------------------------------------------------------------|
g |-8-8-8-8-8-8-8-8-8-8-8-8-8-8-8-8--------------------------------------|
d |-8-8-8-8-8-8-8-8-8-8-8-8-8-8-8-8--------------------------------------|
a |-6-6-6-6-6-6-6-6-6-6-6-6-6-6-6-6-------8-8-8-8-8h9-9-----9/4-4-4-4-4--|
F#|-----------------------------------0-0-*-*-*-*-----0-0-0-----0---0----|


Just 19 and dream obscene with six months off for bad behaviour

e |-------------------------------------------------------------------------|
b |-------------------------------------------------------------------------|
g |-8-8-8-8-8-8-8-8-8-8-8-8-8-8-8-8-----------------------------------------|
d |-8-8-8-8-8-8-8-8-8-8-8-8-8-8-8-8-----------------------------------------|
a |-6-6-6-6-6-6-6-6-6-6-6-6-6-6-6-6------8-8-8-8-8h9-9-----9/13-13-13-13-13~|
F#|----------------------------------0-0-*-*-*-*-----0-0-0------*--*--*--*--|


Remember me...


e |------------------------------------|
b |------------------------------------|
g |------------------------------------|
d |------------------------------------|  x4
a |-----8-8-8-8-8h9-9-----9/4-4-4-4-4--|
F#|-0-0-*-*-*-*-----0-0-0-----0---0----|


La cancion termina de esta forma

e |----------------|
b |----------------|
g |----------------|
d |----------------|  ""el (12) se hace como harmonico""
a |----------------|
F#|-0-0-0~~(12)~~~-|

ESTA ES TODA LA CANCIÓN, ESPERO KE LES GUSTE, LA SAQUE DE UNA VERSION EN VIVO, ES
MUY SENCILLA DE TOCAR, LO QUE SERIA UN POCO DIFICIL POSIBLEMENTE PODRIA SER EL
RITMO, PERO SOLO HABRIA QUE PRACTICAR¡¡¡

ALGUNA DUDA O COMENTARIO::
bethan1031@hotmail.com
Comments