Placebo - Special Needs Chords & Tabs

 

Special Needs Chords & Tabs

Placebo Chords & Tabs

Version: 2 Type: Tab 0 ratings
1 star 2 stars 3 stars 4 stars 5 stars
comments

Special Needs Tab

Title: Special Needs
Artist: placebo
Tab BY: Daniel "Arnni" Greenwood
Comments: i went to see Placebo and there a F*cking amazing i watched Brian play
and he is incredible, i was glad he played special needs but the thing is he
tuning is weird! basicly to get his sound add a capo on 1st fret its make
evrything sharpe but i tab this in standard cos i like normal tuneing. Most of
the New stuff is played on 2 guitars they have a backing bass line.
This is an ace song, and i hope u enjoy it i'm 90% sure it rite!

any way \m/ROCK\m/  
ow and also if you know a girl who has a white beanie hat which looks like a
rabbit and has rabbit ears tell her to contact me :)

Intro

e|--------------------------------------------------------|
b|--------------------------------------------------------|
g|--------------------------------------------------------|
D|---------3-3-3-3-3h4-4----------4-----------------------|
A|-----------------------------------------4-4-4-4-4-4----|
E|---2-2--------------------2-2---------------------------|


Verse 1

e|--------------------------------------------------------|
b|--------------------------------------------------------|
g|--------------------------------------------------------|
D|---------3-3-3-3-3h4-4----------4-----------------------|
A|-----------------------------------------4-4-4-4-4-4----|
E|---2-2--------------------2-2---------------------------|
Remember me when you're the one who's silver screen

e|--------------------------------------------------------|
b|--------------------------------------------------------|
g|--------------------------------------------------------|
D|---------3-3-3-3-3h4-4----------4-----------------------|
A|-----------------------------------------4-4-4-4-4-4----|
E|---2-2--------------------2-2---------------------------|
Remember me when you're the one you always dreamed

e|--------------------------------------------------------|
b|--------------------------------------------------------|
g|--------------------------------------------------------|
D|---------3-3-3-3-3h4-4----------4-----------------------|
A|-----------------------------------------4-4-4-4-4-4----|
E|---2-2--------------------2-2---------------------------|
Remember me when everyone's noses start to bleed
                              Remember me, special needs

Chorus

e|----------------------------------------------------------|
b|----------------------------------------------------------|
g|---8-8-8-8--------------------------------11-11-11-11-----|
D|---8-8-8-8--------------------------------11-11-11-11-----|
A|---6-6-6-6--------------------------------9--9--9--9------|
E|----------------------------------------------------------|
just 19 and sucker's dream I guess I thought you had the flavour

e|----------------------------------------------------------|
b|----------------------------------------------------------|
g|---8-8-8-8--------------------------------11-11-11-11-----|
D|---8-8-8-8--------------------------------11-11-11-11-----|
A|---6-6-6-6--------------------------------9--9--9--9------|
E|----------------------------------------------------------|
Just 19 and dream obscene with six months off for bad behaviour

second guitar
e|----------------------------------------------------------
b|----------------------------------------------------------
g|---10-10-10-10h11-11----11-11-11\6-6-6-6------------------
D|----------------------------------------------------------
A|----------------------------------------------------------
E|----------------------------------------------------------
this is played over the top of the chorus


Verse 2

e|--------------------------------------------------------|
b|--------------------------------------------------------|
g|--------------------------------------------------------|
D|---------3-3-3-3-3h4-4----------4-----------------------|
A|-----------------------------------------4-4-4-4-4-4----|
E|---2-2--------------------2-2---------------------------|
Remember me when you clinch your movie deal

e|--------------------------------------------------------|
b|--------------------------------------------------------|
g|--------------------------------------------------------|
D|---------3-3-3-3-3h4-4----------4-----------------------|
A|-----------------------------------------4-4-4-4-4-4----|
E|---2-2--------------------2-2---------------------------|
And think of me stuck in my chair that has four wheels

e|--------------------------------------------------------|
b|--------------------------------------------------------|
g|--------------------------------------------------------|
D|---------3-3-3-3-3h4-4----------4-----------------------|
A|-----------------------------------------4-4-4-4-4-4----|
E|---2-2--------------------2-2---------------------------|
Remember me through flash photography and screams

e|--------------------------------------------------------|
b|--------------------------------------------------------|
g|--------------------------------------------------------|
D|---------3-3-3-3-3h4-4----------4-----------------------|
A|-----------------------------------------4-4-4-4-4-4----|
E|---2-2--------------------2-2---------------------------|
Remember me, special dreams

Chorus

e|----------------------------------------------------------|
b|----------------------------------------------------------|
g|---8-8-8-8--------------------------------11-11-11-11-----|
D|---8-8-8-8--------------------------------11-11-11-11-----|
A|---6-6-6-6--------------------------------9--9--9--9------|
E|----------------------------------------------------------|
just 19 and sucker's dream I guess I thought you had the flavour

e|----------------------------------------------------------|
b|----------------------------------------------------------|
g|---8-8-8-8--------------------------------11-11-11-11-----|
D|---8-8-8-8--------------------------------11-11-11-11-----|
A|---6-6-6-6--------------------------------9--9--9--9------|
E|----------------------------------------------------------|
Just 19 and dream obscene with six months off for bad behaviour  
[ Tab from: http://www.guitartabs.cc/tabs/p/placebo/special_needs_tab_ver_2.html ]
e|----------------------------------------------------------|
b|----------------------------------------------------------|
g|---8-8-8-8--------------------------------11-11-11-11-----|
D|---8-8-8-8--------------------------------11-11-11-11-----|
A|---6-6-6-6--------------------------------9--9--9--9------|
E|----------------------------------------------------------|
just 19 and sucker's dream I guess I thought you had the flavour

e|----------------------------------------------------------|
b|----------------------------------------------------------|
g|---8-8-8-8--------------------------------11-11-11-11-----|
D|---8-8-8-8--------------------------------11-11-11-11-----|
A|---6-6-6-6--------------------------------9--9--9--9------|
E|----------------------------------------------------------|
Just 19 and dream obscene with six months off for bad behaviour  

Interlude 1
e|--------------------------------------------------------|
b|--------------------------------------------------------|
g|--------------------------------------------------------|
D|---------3-3-3-3-3h4-4----------4-----------------------|
A|-----------------------------------------4-4-4-4-4-4----|
E|---2-2--------------------2-2---------------------------|

Interlude 2
Option 1 (i personly use)

!Distroted!
e|--------------------------------------------------------|
b|--------------------------------------------------------|
g|--------------------------------------------------------|
D|---------3-3-3-3-3h4-4----------4-----------------------|
A|-----------------------------------------4-4-4-4-4-4----|
E|---2-2--------------------2-2---------------------------|

Second guitar(you don't have to have a second guitar it add depth to it)
e|------------------
b|------------------
g|---11-11-11-11----
D|---11-11-11-11----
A|---9--9--9--9-----
E|------------------

Option 2
!distroted Power chords!(this add more depth and make it grity)
e|---------------------------------------------------------|
b|---------5-5-5-5-5s6-6------------6----------------------|
g|---------5-5-5-5-5s6-6------------6--------6-6-6-6-6-6---|
D|---4-4---3-3-3-3-3s4-4----4-4-----4--------6-6-6-6-6-6---|
A|---4-4--------------------4-4--------------4-4-4-4-4-4---|
E|---2-2--------------------2-2----------------------------|

Chorus

e|----------------------------------------------------------|
b|----------------------------------------------------------|
g|---8-8-8-8--------------------------------11-11-11-11-----|
D|---8-8-8-8--------------------------------11-11-11-11-----|
A|---6-6-6-6--------------------------------9--9--9--9------|
E|----------------------------------------------------------|
just 19 and sucker's dream I guess I thought you had the flavour

e|----------------------------------------------------------|
b|----------------------------------------------------------|
g|---8-8-8-8--------------------------------11-11-11-11-----|
D|---8-8-8-8--------------------------------11-11-11-11-----|
A|---6-6-6-6--------------------------------9--9--9--9------|
E|----------------------------------------------------------|
Just 19 and dream obscene with six months off for bad behaviour  

e|----------------------------------------------------------|
b|----------------------------------------------------------|
g|---8-8-8-8--------------------------------11-11-11-11-----|
D|---8-8-8-8--------------------------------11-11-11-11-----|
A|---6-6-6-6--------------------------------9--9--9--9------|
E|----------------------------------------------------------|
just 19 and sucker's dream I guess I thought you had the flavour

e|----------------------------------------------------------|
b|----------------------------------------------------------|
g|---8-8-8-8--------------------------------11-11-11-11-----|
D|---8-8-8-8--------------------------------11-11-11-11-----|
A|---6-6-6-6--------------------------------9--9--9--9------|
E|----------------------------------------------------------|
Just 19 and dream obscene with six months off for bad behaviour  

Chorus

e|----------------------------------------------------------|
b|----------------------------------------------------------|
g|---8-8-8-8--------------------------------11-11-11-11-----|
D|---8-8-8-8--------------------------------11-11-11-11-----|
A|---6-6-6-6--------------------------------9--9--9--9------|
E|----------------------------------------------------------|
just 19 and sucker's dream I guess I thought you had the flavour

e|----------------------------------------------------------|
b|----------------------------------------------------------|
g|---8-8-8-8--------------------------------11-11-11-11-----|
D|---8-8-8-8--------------------------------11-11-11-11-----|
A|---6-6-6-6--------------------------------9--9--9--9------|
E|----------------------------------------------------------|
Just 19 and dream obscene with six months off for bad behaviour  

e|----------------------------------------------------------|
b|----------------------------------------------------------|
g|---8-8-8-8--------------------------------11-11-11-11-----|
D|---8-8-8-8--------------------------------11-11-11-11-----|
A|---6-6-6-6--------------------------------9--9--9--9------|
E|----------------------------------------------------------|
just 19 and sucker's dream I guess I thought you had the flavour

e|----------------------------------------------------------|
b|----------------------------------------------------------|
g|---8-8-8-8--------------------------------11-11-11-11-----|
D|---8-8-8-8--------------------------------11-11-11-11-----|
A|---6-6-6-6--------------------------------9--9--9--9------|
E|----------------------------------------------------------|
Just 19 and dream obscene with six months off for bad behaviour

Remember me

Outro
e|--------------------------------------------------------|
b|--------------------------------------------------------|
g|--------------------------------------------------------|
D|---------3-3-3-3-3h4-4----------4-----------------------|
A|-----------------------------------------4-4-4-4-4-4----|
E|---2-2--------------------2-2---------------------------|

thats it!
Comments