Placebo - Special K Chords & Tabs

 

Special K Chords & Tabs

Placebo Chords & Tabs

Version: 7 Type: Tab 0 ratings
1 star 2 stars 3 stars 4 stars 5 stars
comments

Special K Tab

Transcribed by: Nuno (piece_of_mind@portugalmail.pt)

special K

intro
gt.Clean sound

E --1--1--1----------------------------|
B --1--1--1----------------------------|
G --3--3--3----------------------------|
D --3--3--3----------------------------|
A --1--1--1----------------------------|
E -------------------------------------|

gt.dist

E -------------------------------------|
B -------------------------------------|
G --6--5--6--8--6--5--6----------------|
D --4--4--4--4--4--4--4----------------|
A -------------------------------------|
E -------------------------------------|

  1st.guitar                   2nd.guitar
E --------------------------------8-----|
C ----------------------------------9---|let ring
G --------------------------------------|
D --8-----------------------------------|
A --8-----------------------------------|
E --6-----------------------------------|
[ Tab from: http://www.guitartabs.cc/tabs/p/placebo/special_k_tab_ver_7.html ]
  pre chorus
E -------------------------------------|
C -------------------------------------|
G -------------------------------------|
D --6----8----11-----------------------|2 xs
A --4----6----9------------------------|
E -------------------------------------|

  1st.guitar
E -------------------------------------|
C -------------------------------------|
G -------------------------------------|
D --6----8----11-----------------------|2 xs
A --4----6----9------------------------|
E -------------------------------------|


  2nd.guitar
E -------------------------------------|
C -------------------------------------|
G -----6--8----------------------------|
D --6--------6--8----11----------------|2 xs
A --4-----------6----9-----------------|
E -------------------------------------|

  chorus
E -------------------------------------|
C -------------------------------------|
G -------------------------------------|
D --6-------------3--------------------|
A --4-------------1--------------------|
E -------------------------------------|


  end of chorus
E -------------------------------------|
C -------------------------------------|
G -------------------------------------|
D -----4--3----------------------------|
A --4----------------------------------|
E --2----------------------------------|
Comments